Oops, an error
Loading. Please wait.

Meet Me On The Corner bass

1,051 views 18 this week
2 commentsread comments
1 2 3 4 5
x 3
add to favorites
×
Save as Personal and add changes to this tab that will be seen only by you. Learn more ›
×
You can save this tab as Personal to edit and correct it or add notes. All changes will be seen only by you. Learn more »
launch autoscroll
font size
0
reset
guitar tuner
backing track
0:00
0:00
edit
Autoscroll
slow
fast
+/-
esc
set tempo
stop
Author
Difficulty
Song: Meet me on the corner - BASS
Artist: Lindisfarne
Album: Fog on the Tyne
Tabbed by DJ
23rd June 2015

First up, I'm an acoustic guitarist who plays a bit of bass.
This tab was a special request, so I hope it's OK. 
Some parts could be played at different fret positions,
but it's probably personal taste. Any improvements are welcome.

***********************************************************************

[Intro]
   (2 bars acoustic guitar)
G |----------------|----------------|
D |----------------|----------------|
A |----------------|----------------|
E |----------------|----------------|

G |----------------|----------------|----------------|----------------|
D |---------2------|---4-----2------|----------------|----------------|
A |------4-----2---|------4-----2---|---5-----7------|----------------|
E |---5------------|----------------|------5-----0---|---5--0--5--0---|


[Verses 1]
G |----------------|----------------|----------------|----------------|
D |---------2------|---4-----2------|----------------|----------------|
A |------4-----2---|------4-----2---|---5-----7------|------4--7------|
E |---5------------|----------------|------5-----0---|---5--------0---|

G |----------------|----------------|----------------|----------------|
D |----------------|----------------|------4--2------|----------------|
A |---5-----7------|------------4---|---2------------|------4--7------|
E |------5-----0---|---5--4--2------|------------0---|---5--------0-4-|


[Verse 2]
G |----------------|----------------|----------------|----------------|
D |---------2------|---4-----2------|----------------|----------------|
A |------4-----2---|------4-----2---|---5-----7------|------4--7------|
E |---5------------|----------------|------5-----0---|---5--------0---|

G |----------------|----------------|----------------|----------------|
D |----------------|----------------|------4--2------|----------------|
A |---5-----7------|------------4---|---2------------|----------------|
E |------5-----0---|---5--4--2------|------------0---|---5--5--5--5---|


[Chorus]
G |----------------|----------------|----------------|----------------|
D |----------------|----------------|------7--7\-6\--|---4-----4------|
A |----------------|---4-----4------|----------------|------4-----4\--|
E |---5--2--5--2---|------4-----7---|---5------------|----------------|

G |----------------|----------------|----------------|----------------|
D |----------------|----------------|----------------|----------------|
A |---0-----0------|---4------------|-------------5--|---7---7-5---5--|
E |------2-----2---|------4--2--5---|---7\--2--5-----|----------------|

G |----------------|
D |----------------|
A |--4--4----------|
E |--------7\--0---|


[Verse 3]
G |----------------|----------------|----------------|----------------|
D |---------2------|---4-----2------|----------------|----------------|
A |------4-----2---|------4-----2---|---5-----7------|------4--7------|
E |---5------------|----------------|------5-----0---|---5--------0---|

G |----------------|----------------|----------------|----------------|
D |----------------|----------------|------4--2------|----------------|
A |---5-----7------|------------4---|---2------------|----------------|
E |------5-----0---|---5--4--2------|------------0---|---5--5--5--5---|


[Chorus]
G |----------------|----------------|----------------|----------------|
D |----------------|----------------|------7--7\-6\--|---4-----4------|
A |----------------|---4-----4------|----------------|------4-----4\--|
E |---5--2--5--2---|------4-----7---|---5------------|----------------|

G |----------------|----------------|----------------|----------------|
D |----------------|----------------|----------------|----------------|
A |---0-----0------|---4------------|-------------5--|---7---7-5---5--|
E |------2-----2---|------4--2--5---|---7\--2--5-----|----------------|

G |----------------|
D |----------------|
A |--4--4----------|
E |--------7\--0---|


[Verses 4 & Coda]
G |----------------|----------------|----------------|----------------|
D |---------2------|---4-----2------|----------------|----------------|
A |------4-----2---|------4-----2---|---5-----7------|------4--7------|
E |---5------------|----------------|------5-----0---|---5--------0---|

G |----------------|----------------|----------------|
D |----------------|----------------|------4--2------|
A |---5-----7------|------------4---|---2------------|
E |------5-----0---|---5--4--2------|------------0---|

G |----------------|----------------|----------------|---------------||
D |----------------|---4-----2------|----------------|---------------||
A |-----4-5--7-----|------4-----2---|---5-----7------|---------------||
E |--5----------7--|----------------|------5-----0---|---5--0-4--5---||

            
            
Suggest correction
Creating personal tab
Creating personal tab
You can edit any tab online and save it as your Personal.

You can edit, replace or remove any tab part or add personal notes – all changes will be seen only by you.

Personal tabs can be accessed anytime from any device, even offline.
Learn more »
Give kudos to tab author, rate the tab!
1 2 3 4 5
comments
print report bad tab
2 comments total.
+1 reply
Mooro1966 10 Aug 07, 2015 03:51 AM

Thanks and a great, easy to follow TAB.

+1 reply
bass50611 12,935 Mar 07, 2017 05:27 AM

Tab is spot on. Good job mate

guest
You may want to rate the tab now too:
select rating
Wanna post a correction for this tab? Suggest correction