Oops, an error
Loading. Please wait.

Run For Home bass

220 views 1 this week
1 commentread comment
1 2 3 4 5
3 more votes to show rating
add to favorites
×
Save as Personal and add changes to this tab that will be seen only by you. Learn more ›
×
You can save this tab as Personal to edit and correct it or add notes. All changes will be seen only by you. Learn more »
launch autoscroll
font size
0
reset
guitar tuner
edit
Autoscroll
slow
fast
+/-
esc
set tempo
stop
Author
Difficulty
Lindisfarne
Run for Home

Key signature: C / D
Tempo: 131 bpm

Intro: instrumental 
G|---------|---------||---------|---------|-
D|---------|---------||---------|---------|-
A|-3--3-3b-|-3--3-3r-||---------|---------|-  C C 
E|---------|---------||-5--5-5b-|-5--5-5r-|-      A A
Ahaaah
G|---------|---------||---------|---------|-
D|-3--3-3b-|-3--3-3r-||---------|---------|- F F
A|---------|---------||-5--5-5b-|-5--5-5r-|-     D D
E|---------|---------||---------|---------|-
Ahaaah

Bridge: 00:14
G|-------------------||-------------------|-
D|---------2r--2-4-5-||---------2r--2-4-5-|-
A|-3r~---------------||-3r~---------------|- C C
E|-------------------||-------------------|-

Verse1: 00:21
G|---------|---------||---------|---------||-----------|-
D|---------|/3r~-----||---------|---------||-2r--2-4-5-|-   F
A|-3r~-----|---------||-/8-\-5b-|---------||-----------|- C
E|---------|---------||---------|-5r-\-3r-||-----------|-
I've travelled the land
With a guitar in my hand
And an eye ever open for some fun
G|---------|---------||---------|---------||-----------|-
D|---------|/3r~-----||---------|---------||-2r--2-4-5-|-   F
A|-3r~-----|---------||-/8-\-5b-|---------||-----------|- C
E|---------|---------||---------|-5r-\-3r-||-----------|-
I've made some mistakes
Had my share of the breaks
Seen the boys on the make and on the bum

Chorus1: 00:51 (play X2)
G|---------|---------||---------|---------|-
D|---------|---------||---------|---------|-
A|-3--3-3b-|-3--3-3r-||---------|---------|- C C
E|---------|---------||-5--5-5b-|-5--5-5r-|-     A A
Run for home run as fast as I can
G|---------|---------||---------|---------|-
D|-3--3-3b-|-3--3-3r-||---------|---------|- F F
A|---------|---------||-5--5-5b-|-5--5-5r-|-     D D
E|---------|---------||---------|---------|-
Oh-oh running man running for home                    >>> V2
Verse2: 01:20
G|---------|---------||---------|---------||-----------|-
D|---------|-3r~-----||---------|---------||-2r--2-4-5-|-   F 
A|-3r~-----|---------||-/8-\-5b-|---------||-----------|- C
E|---------|---------||---------|-5r-\-3r-||-----------|-
I've seen all the frowns
On the faces of the clowns
And the downs that they take just to be free
G|---------|---------||---------|---------||-----------|-
D|---------|-3r~-----||---------|---------||-2r--2-4-5-|-   F
A|-3r~-----|---------||-/8-\-5b-|---------||-----------|- C 
E|---------|---------||---------|-5r-\-3r-||-----------|-
And I've seen all the girls
In their pretty frocks and curls
But it don't mean a lot to me

Chorus2: 01:50 
G|---------|---------||---------|---------|-
D|---------|---------||---------|---------|-
A|-3--3-3b-|-3--3-3r-||---------|---------|- C C 
E|---------|---------||-5--5-5b-|-5--5-5r-|-     A A
Run for home run as fast as I can       
G|---------|---------||---------|---------|-
D|-3--3-3b-|-3--3-3r-||---------|------5r-|- F F
A|---------|---------||-5--5-5b-|-5--5----|-     D G
E|---------|---------||---------|---------|-
Oh-oh running man running for home

^ Break: 02:04 => Key: D
G|-------------------||-------------------|-
D|---------4r--5-6-7-||---------4r--5-6-7-|-
A|-5r~---------------||-5r~---------------|- D D
E|-------------------||-------------------|-

Verse3: 02:10 “octave riff”
G|-----7-7-|-----7-7-||-----9-9-|-----9-9-|-  
D|---------|---------||---------|---------|- 
A|-5r~-----|-5r~-----||-7r~-----|-7r~-----|- D D E E
E|---------|---------||---------|---------|-  
And I've been to the places in town
Where the faces hang round
Just to stare at each other
G|-----9-9-|-----9-9-||------------------------|- 
D|---------|---------||-----9--7~--9-7---------|-  
A|-7r~-----|-7r~-----||-5r~------------9-7-(5)-|- E E D...
E|---------|---------||------------------------|- 
I've looned with them screamed at the moon
Behaved like a buffoon but I soon discovered



>> Chorus/outro
Chorus3/outro: 01:50 (play XXX)
G|---------|---------||---------|---------|-
D|---------|---------||---------|---------|-
A|-5--5-5b-|-5--5-5r-||---------|---------|- D D 
E|---------|---------||-7--7-7b-|-7--7-7r-|-     B B
Run for home run as fast as I can       (2nd time)
G|---------|---------||---------|------------------|-
D|-5--5-5b-|-5--5-5r-||---------|-9-7--9-7---------|- G G
A|---------|---------||-5--5-5b-|----------9-7-(5)-|-     D...
E|---------|---------||---------|------------------|-
Oh-oh running man running for home


Repeat Chorus until fade


End: 04:22


 Tab legend:

| /  slide up
| \  slide down
| h  hammer-on 
| .  full stop 
| b  bend 
| r  bend and release 
| p  pull-off 
| ~  vibrato 
| +  harmonic 
| x  Mute note
| g  grace note 


            
            
Suggest correction
Creating personal tab
Creating personal tab
You can edit any tab online and save it as your Personal.

You can edit, replace or remove any tab part or add personal notes – all changes will be seen only by you.

Personal tabs can be accessed anytime from any device, even offline.
Learn more »
Give kudos to tab author, rate the tab!
1 2 3 4 5
comments
print report bad tab
1 comment total.
0 reply
sheila scotty 16 Nov 12, 2015 05:21 AM

Lindisfrarne is a great band from Newcastle upon Tyne in UK... I saw them in 1972 for the their usual singing along Christmas show We dearly missed them...
Great tab... very nice !!

guest
You may want to rate the tab now too:
select rating
Wanna post a correction for this tab? Suggest correction