Oops, an error
Loading. Please wait.

Never Going Back Again tab

version 2
version 2

Whole song

Interactive

838 views 6 this week
no commentswrite comment
1 2 3 4 5
3 more votes to show rating
add to favorites
×
Save as Personal and add changes to this tab that will be seen only by you. Learn more ›
×
You can save this tab as Personal to edit and correct it or add notes. All changes will be seen only by you. Learn more »
launch autoscroll
font size
0
reset
how to read this tab
guitar tuner
edit
Autoscroll
slow
fast
+/-
esc
set tempo
stop
-------------------------------------------------------------------------------
          Never Going Back Again - Lindsey Buckingham (Fleetwood Mac)
-------------------------------------------------------------------------------

Tabbed by: John Manning, jmanning1175@gmail.com

Tuning: Drop c

This is my take on Never Going Back Again. It has the new intro and solo he adds in now 
days and is mixed with parts from the original 1977 version all the way up to the 
version he plays today. The solo here is based from the way he plays it in this
interview (1997): https://www.youtube.com/watch?v=HCd6V4S2ksw
The intro and verses are based from the way he plays it live now days, except for the 
ending verse which is from the original 1977 version.


intro
e|------------------------------------------------------------------------------|
B|-----7~~~---8/10-10/12---12~~~-----8p7h8---8~~~--7~~~-----5--7/8-8/10--10~~~--|
G|-----------------------------------------0------------------------------------|
D|--0---------------------------------------------------------------------------|
A|--------------------------------------------------------0---------------------|
E|------------------------------------------------------------------------------|

e|------------------------------------------------------------------------------|
B|--8p7--5----5h7~~~-----7~~~---8/10 10/12---12~~~-----8p7h8---8~~~--7~~~-------|
G|-----------------------------------------------------------0------------------|
D|--------------------0---------------------------------------------------------|
A|---------------------------------------------------------------------------0--|
E|---------0--------------------------------------------------------------------|

e|------------------------------------------------------------------------------|
B|--2-3/5-5/7-7~~~-----5\3--2~~~----3~~~-------3--------------------------------|
G|---------------------------------------2--0-----------------------------------|
D|-------------------------------------------------4----------------------------|
A|------------------------------------------------------------------------------|
E|--------------------------------0---------------------------------------------|

verse riffs
1.
e|-------------------------------------------------------------2-----2-----2-----2----------|
B|-----3---2h3------3-------3------3---2h3-------3---------------5-----5-----5-----5--------|
G|---------------2-------2--------------------2-------2------------2-----2-----2-----2------|
D|-----4---2h4----4-------4--------4---2h4-----4--------4/5----5-------5-------5-------5----|
A|-------0-------------0-------------0--------------0--------0-----0-------0-------0--------|
E|--0----------0-----------------0----------0-----------------------------------------------|

e|----------------------------------------|
B|--3-------5/7---5--3-----3-------3------|
G|------2---0----------2-------2----------|
D|--------4-------5------4-------4--------|
A|--------------0------------0------------|
E|----0--------------0--------------------|

2.
e|---------------------------------------------------------------2-----2-----2-----2----------|
B|-----3----2h3------3-------3------3----2h3-------3---------------5-----5-----5-----5--------|
G|---------2------2-------2-------------2-------2-------2------------2-----2-----2-----2------|
D|-----4----2h4----4-------4--------4----2h4-----4--------4/5----5-------5-------5-------5----|
A|-------0-------------0--------------0--------------0--------0------0-------0-------0--------|
E|--0----------0-----------------0----------0-------------------------------------------------|

e|----------------------------------------|
B|--3-------5/7---5--3-----3-------3------|
G|------2---0----------2-------2----------|
D|--------4-------5------4-------4--------|
A|--------------0------------0------------|
E|----0--------------0--------------------|

3.
e|---------------------------------------------------------------2-----2-----2-----2----------|
B|-----3----2h3------3-------3------3----2h3-------3---------------5-----5-----5-----5--------|
G|----2----2------2-------2--------2----2-------2-------2------------2-----2-----2-----2------|
D|-----4----2h4----4-------4--------4----2h4-----4--------4/5----5-------5-------5-------5----|
A|-------0-------------0--------------0--------------0--------0------0-------0-------0--------|
E|--0----------0-----------------0----------0-------------------------------------------------|

e|----------------------------------------|
B|--3-------5/7---5--3-----3--------------|
G|------2---0----------2-------2----------|
D|--------4-------5------4-------0--------|
A|--------------0------------0------------|
E|----0--------------0--------------------|


chorus
e|-----10----9----10----10----10-------10-9-----10----10----10----------|
B|-----10----8------10----10----10-----10---8-----10----10----10--------|
G|--------------------7-----7-----7-----------------7-----7-----7-------|
D|-----0-------0------0-------0--------0------0-----0-------0-----------|
A|--------0---------------0---------------0-------------0---------------|
E|--0-------------0---------------0-------------0---------------0-------|

e|--10----9----10-----10----10----------------------5-------------------|
B|--10----8------10-----10----------3---2-----3------------2h3----------|
G|-----------------7------7---------------------4-------2---------------|
D|--0-------0------0--------0-------4-----2h4-----4--------2h4----------|
A|-----0----------------0---------2-----------2-------0-----------------|
E|-------------0----------------------4---------------------------------|


middle verse
e|----------------------------------------------------------------------------------------------|
B|-----3---2h3------3-------3------3---2h3-------3---------------2---3-------------2---3--------|
G|---------------2-------2--------------------2-------2------------------4-----4-----------2----|
D|-----4---2h4----4-------4--------4---2h4-----4--------4/5----5-------5-----5-------5------4---|
A|-------0-------------0-------------0--------------0--------0-----0-------0-----0--------------|
E|--0----------0-----------------0----------0--------------------------------------------0------|

e|-----------------------|
B|--2-----2h3-3----------|
G|------2----------------|
D|--------2h4---4---4----|
A|----0------------------|
E|------------0---0------|


solo
e|---------------------------------------------------------------------------------------------|
B|---10~~~------8~~~------7~~~--5---3---------------3-2-----2---3---0------0---2---3------2----|
G|--------------------------------------2---------2------2--------------0--------------2-------|
D|------0----0-----0----0----0--------0-------2/4---------2--------------2--------------4------|
A|-----------------------------------------------------0------0---0---0------0---0----------0--|
E|---0----0-----0----0----0-------0-------0-0---0------------------------------------0---------|

e|---------------------------------------------------------------------------------------------|
B|----2h3-3----------10~~~--10/12--8~~~---8/10--7~~~--5---3---------------3-2-----2---3---0----|
G|--2---------------------------------------------------------2---------2------2---------------|
D|----2h4---4---4-------0------0------0-----0------0--------0-------2/4---------2--------------|
A|---------------------------------------------------------------------------0------0---0---0--|
E|--------0---0------0----0--------0----0-------0-------0-------0-0---0------------------------|

e|----------------------------------------------|
B|-----0---2---3------2-----2h3-3-----3---------|
G|--0--------------2------2-------3-------------|
D|---2--------------4-------2h4-----4-----0-----|
A|-------0---0----------0---------------0-------|
E|---------------0--------------0---------------|


Chorus
e|-----10----9----10----10----10-------10-9-----10----10----10----------|
B|-----10----8------10----10----10-----10---8-----10----10----10--------|
G|--------------------7-----7-----7-----------------7-----7-----7-------|
D|-----0-------0------0-------0--------0------0-----0-------0-----------|
A|--------0---------------0---------------0-------------0---------------|
E|--0-------------0---------------0-------------0---------------0-------|

e|--10----9----10-----10----10----------------------5-------------------|
B|--10----8------10-----10----------3---2-----3------------2h3----------|
G|-----------------7------7---------------------4-------2---------------|
D|--0-------0------0--------0-------4-----2h4-----4--------2h4----------|
A|-----0----------------0---------2-----------2-------0-----------------|
E|-------------0----------------------4---------------------------------|


ending verses
1.
e|--------------------------------------------------------2-----2-----2-----2-----------|
B|----3----2h3----3----2h3----3----2h3--------3-------------5-----5-----5-----5---------|
G|----------------------------------------2-------2-----------2-----2-----2-----2-------|
D|----4----2h4----4----2h4----4----2h4------4-------4/5---5-------5-------5-------5-----|
A|-------0-----------0-----------0--------------0-------0-----0-------0-------0---------|
E|--0-----------0-----------0-----------0-----------------------------------------------|

e|----------------------------------------|
B|--3-------5/7---5--3-----3-------3------|
G|------2---0----------2-------2----------|
D|--------4-------5------4-------4--------|
A|--------------0------------0------------|
E|----0--------------0--------------------|

2.
e|----------------5-----5-------------------5-----5------2-----2-----2-----2------------|
B|----3----2h3------3-----3------3p2---5-3----3-----3------5-----5-----5-----5----------|
G|--------------------2-----2-------------------2------------2-----2-----2-----2--------|
D|----4----2h4----4-------4------4p2---5----4-------4----5-------5-------5-------5------|
A|-------0------------0--------------0----------0------0-----0-------0-------0----------|
E|--0-----------0--------------0---------0----------------------------------------------|

e|-------------------------------2--------------|
B|--3-------5/7---5~~~~---------3---------------|
G|------2---0------------------2----------------|
D|--------4-------5~~~~-------4-----------------|
A|--------------0------------0------------------|
E|----0---------------------0------0---0---0----|


************************************

| /   slide up
| \   slide down
| h   hammer-on
| p   pull-off
| ~   vibrato
| +   harmonic
| x   Mute note
| b   Bend
| pb  Pre-bend
| br  Bend release
| pbr Pre-bend release
| brb Bend release bend

************************************

            
            
Suggest correction
Creating personal tab
Creating personal tab
You can edit any tab online and save it as your Personal.

You can edit, replace or remove any tab part or add personal notes – all changes will be seen only by you.

Personal tabs can be accessed anytime from any device, even offline.
Learn more »
Give kudos to tab author, rate the tab!
1 2 3 4 5
comments
print report bad tab
guest
You may want to rate the tab now too:
select rating
Wanna post a correction for this tab? Suggest correction