Oops, an error
Loading. Please wait.

Trouble Live tab

version 1
version 1

Whole song

  • This is 'Trouble' like Lindsey played it on the "S... Show more
  • This is "Trouble" like Lindsey played it on the "S... Show more
676 views 3 this week
no commentswrite comment
1 2 3 4 5
2 more votes to show rating
add to favorites
×
Save as Personal and add changes to this tab that will be seen only by you. Learn more ›
×
You can save this tab as Personal to edit and correct it or add notes. All changes will be seen only by you. Learn more »
launch autoscroll
font size
0
reset
how to read this tab
guitar tuner
edit
Autoscroll
slow
fast
+/-
esc
set tempo
stop
[Intro]

D|----------------0-------------------0--------------------------------------|
B|------0--------------------0-----------------------------------------------|
G|-----------2--------------------2------------------------------------------|
D|----0-----0--------------0-----0-------------------------------------------|
G|--0------0----0---------0-----0----0---------------------------------------|
D|---------------------------------------------------------------------------|

D|---------------------------------------------------------------------------|
B|----8------7---8-------8----7---8------------------------------------------|
G|---------------------------------------------------------------------------|
D|---9-----9------------9----9-----------------------------------------------|
G|--9----9------9------9----9----9-------------------------------------------|
D|---------------------------------------------------------------------------|

D|----------------0-------------------0--------------------------------------|
B|------0--------------------0-----------------------------------------------|
G|-----------2--------------------2------------------------------------------|
D|----0-----0--------------0-----0-------------------------------------------|
G|--0------0----0---------0-----0----0---------------------------------------|
D|---------------------------------------------------------------------------|

D|---------------------------------------------------------------------------|
B|----8------7---8-------8----7---8------------------------------------------|
G|---------------------------------------------------------------------------|
D|---9-----9------------9----9-----------------------------------------------|
G|--9----9------9------9----9----9-------------------------------------------|
D|---------------------------------------------------------------------------|


[Verse]

    I should be saying goodnight now, 

D|----------------0-------------------0--------------------------------------|
B|------0--------------------0-----------------------------------------------|
G|-----------2--------------------2------------------------------------------|
D|----0-----0--------------0-----0-------------------------------------------|
G|--0------0----0---------0-----0----0---------------------------------------|
D|---------------------------------------------------------------------------|

    I really shouldn't stay anymore

D|---------------------------------------------------------------------------|
B|----8------7---8-------8----7---8------------------------------------------|
G|---------------------------------------------------------------------------|
D|---9-----9------------9----9-----------------------------------------------|
G|--9----9------9------9----9----9-------------------------------------------|
D|---------------------------------------------------------------------------|

    It's been so long since I held you

D|----------------0-------------------0--------------------------------------|
B|------0--------------------0-----------------------------------------------|
G|-----------2--------------------2------------------------------------------|
D|----0-----0--------------0-----0-------------------------------------------|
G|--0------0----0---------0-----0----0---------------------------------------|
D|---------------------------------------------------------------------------|

    I've forgotten what love is for, huhuhu

D|---------------------------------------------------------------------------|
B|----8------7---8-------8----7---8------------------------------------------|
G|---------------------------------------------------------------------------|
D|---9-----9------------9----9-----------------------------------------------|
G|--9----9------9------9----9----9-------------------------------------------|
D|---------------------------------------------------------------------------|

                                      

D|----------------0-------------------0--------------------------------------|
B|------0--------------------0-----------------------------------------------|
G|-----------2--------------------2------------------------------------------|
D|----0-----0--------------0-----0-------------------------------------------|
G|--0------0----0---------0-----0----0---------------------------------------|
D|---------------------------------------------------------------------------|

     I should run

D|---------------------------------------------------------------------------|
B|----8------7---8-------8----7---8------------------------------------------|
G|---------------------------------------------------------------------------|
D|---9-----9------------9----9-----------------------------------------------|
G|--9----9------9------9----9----9-------------------------------------------|
D|---------------------------------------------------------------------------|


D|---------------------------------------------------------------------------|
B|-----5---------5------5-------5--------------------------------------------|
G|-----------7---------------7-----------------------------------------------|
D|---5-----5-----------5----5------------------------------------------------|
G|--5-----5-----5-----5----5---5---------------------------------------------|
D|---------------------------------------------------------------------------|


D|---------------------------------------------------------------------------|
B|---------------------------------------------------------------------------|
G|-----7------7----7------7------7-----7-------------------------------------|
D|----7------7-----------7------7--------------------------------------------|
G|--7-------7-----7-----7------7------7--------------------------------------|
D|---------------------------------------------------------------------------|


[Chorus]

   I think I'm in trouble   

D|--------------2--0---------------------------------------------------------|
B|--------------------0------------------------------------------------------|
G|-----0--0--0-----------0---------------------------------------------------|
D|-------------------------0---2v--0--2v-2v--0--2v-0--2v-2v-0----------------|
G|--5v----5--5--5--5--5------------------------------------------------------|
D|-----------------------------0---0--0--0---0--0--0--0--0--0----------------|


   think I'm in trouble   

D|--------------2--0---------------------------------------------------------|
B|--------------------0------------------------------------------------------|
G|-----0--0--0-----------0---------------------------------------------------|
D|-------------------------0---2v--0--2v-2v--0--2v-0--2v-2v-0----------------|
G|--5v----5--5--5--5--5------------------------------------------------------|
D|-----------------------------0---0--0--0---0--0--0--0--0--0----------------|

   Trouble

D|--------------2--0---------------------------------------------------------|
B|--------------------0------------------------------------------------------|
G|-----0--0--0-----------0---------------------------------------------------|
D|-------------------------0---2v--0--2v-2v--0--2v-0--2v-2v-0----------------|
G|--5v----5--5--5--5--5------------------------------------------------------|
D|-----------------------------0---0--0--0---0--0--0--0--0--0----------------|


[Verse]


    Come to me darling and hold me

D|----------------0-------------------0--------------------------------------|
B|------0--------------------0-----------------------------------------------|
G|-----------2--------------------2------------------------------------------|
D|----0-----0--------------0-----0-------------------------------------------|
G|--0------0----0---------0-----0----0---------------------------------------|
D|---------------------------------------------------------------------------|

    Come and keep your daddy warm

D|---------------------------------------------------------------------------|
B|----8------7---8-------8----7---8------------------------------------------|
G|---------------------------------------------------------------------------|
D|---9-----9------------9----9-----------------------------------------------|
G|--9----9------9------9----9----9-------------------------------------------|
D|---------------------------------------------------------------------------|

    Been so long since I held you

D|----------------0-------------------0--------------------------------------|
B|------0--------------------0-----------------------------------------------|
G|-----------2--------------------2------------------------------------------|
D|----0-----0--------------0-----0-------------------------------------------|
G|--0------0----0---------0-----0----0---------------------------------------|
D|---------------------------------------------------------------------------|

    forgotten what love is for, huhuhu

D|---------------------------------------------------------------------------|
B|----8------7---8-------8----7---8------------------------------------------|
G|---------------------------------------------------------------------------|
D|---9-----9------------9----9-----------------------------------------------|
G|--9----9------9------9----9----9-------------------------------------------|
D|---------------------------------------------------------------------------|
                                      

D|----------------0-------------------0--------------------------------------|
B|------0--------------------0-----------------------------------------------|
G|-----------2--------------------2------------------------------------------|
D|----0-----0--------------0-----0-------------------------------------------|
G|--0------0----0---------0-----0----0---------------------------------------|
D|---------------------------------------------------------------------------|

     I should run

D|---------------------------------------------------------------------------|
B|----8------7---8-------8----7---8------------------------------------------|
G|---------------------------------------------------------------------------|
D|---9-----9------------9----9-----------------------------------------------|
G|--9----9------9------9----9----9-------------------------------------------|
D|---------------------------------------------------------------------------|


D|---------------------------------------------------------------------------|
B|-----5---------5------5-------5--------------------------------------------|
G|-----------7---------------7-----------------------------------------------|
D|---5-----5-----------5----5------------------------------------------------|
G|--5-----5-----5-----5----5---5---------------------------------------------|
D|---------------------------------------------------------------------------|


D|---------------------------------------------------------------------------|
B|---------------------------------------------------------------------------|
G|-----7------7----7------7------7-----7-------------------------------------|
D|----7------7-----------7------7--------------------------------------------|
G|--7-------7-----7-----7------7------7--------------------------------------|
D|---------------------------------------------------------------------------|


[Chorus]

   I think I'm in trouble   

D|--------------2--0---------------------------------------------------------|
B|--------------------0------------------------------------------------------|
G|-----0--0--0-----------0---------------------------------------------------|
D|-------------------------0---2v--0--2v-2v--0--2v-0--2v-2v-0----------------|
G|--5v----5--5--5--5--5------------------------------------------------------|
D|-----------------------------0---0--0--0---0--0--0--0--0--0----------------|


   think I'm in trouble   

D|--------------2--0---------------------------------------------------------|
B|--------------------0------------------------------------------------------|
G|-----0--0--0-----------0---------------------------------------------------|
D|-------------------------0---2v--0--2v-2v--0--2v-0--2v-2v-0----------------|
G|--5v----5--5--5--5--5------------------------------------------------------|
D|-----------------------------0---0--0--0---0--0--0--0--0--0----------------|

   Trouble

D|--------------2--0---------------------------------------------------------|
B|--------------------0------------------------------------------------------|
G|-----0--0--0-----------0---------------------------------------------------|
D|-------------------------0---2v--0--2v-2v--0--2v-0--2v-2v-0----------------|
G|--5v----5--5--5--5--5------------------------------------------------------|
D|-----------------------------0---0--0--0---0--0--0--0--0--0----------------|


[Solo]

D|-5--4--5--7--4--5--7------4--5--7--4--5--7--4--5--4--5--2--2--4--0--0--0--0--0--|
B|--------------------------------------------------------------------------------|
G|--------------------------------------------------------------------------------|
D|-------0--------0------------0--------0-----0-----0-----0--0--0--0--0--0--0--0--|
G|----0-----0--0-----0------0-----0--0-----0-----0--------------------------------|
D|-0------------------------------------------------------------------------------|


                                                                                         d u d u d
D|-5--4--5--7--4--5--7v------4--5--7v--4--5--7--4--5--4--5--2--2--4--0--2h4p----------0----------------0-|
B|--------------------------------------------------------------------------3h5p------0---3-3-3-3-3----0-|
G|------------------------------------------------------------------------------2h4p--0---5-5-5-5-5----0-|
D|-------0--------0-------------0---------0-----0-----0-----0--0--0--0---0---0--------0---5-5-5-5-5----0-|
G|----0-----0--0-------0-----0-----0---0-----0-----0----------------------------0-----0----------------0-|
D|-0----------------------------------------------------------------------------------0----------------0-|



     I should run on the double

D|---------------------------------------------------------------------------|
B|----8------7---8-------8----7---8------------------------------------------|
G|---------------------------------------------------------------------------|
D|---9-----9------------9----9-----------------------------------------------|
G|--9----9------9------9----9----9-------------------------------------------|
D|---------------------------------------------------------------------------|


D|---------------------------------------------------------------------------|
B|-----5---------5------5-------5--------------------------------------------|
G|-----------7---------------7-----------------------------------------------|
D|---5-----5-----------5----5------------------------------------------------|
G|--5-----5-----5-----5----5---5---------------------------------------------|
D|---------------------------------------------------------------------------|


D|---------------------------------------------------------------------------|
B|---------------------------------------------------------------------------|
G|-----7------7----7------7------7-----7-------------------------------------|
D|----7------7-----------7------7--------------------------------------------|
G|--7-------7-----7-----7------7------7--------------------------------------|
D|---------------------------------------------------------------------------|


[Outro]

   I think I'm in trouble   

D|--------------2--0---------------------------------------------------------|
B|--------------------0------------------------------------------------------|
G|-----0--0--0-----------0---------------------------------------------------|
D|-------------------------0---2v--0--2v-2v--0--2v-0--2v-2v-0----------------|
G|--5v----5--5--5--5--5------------------------------------------------------|
D|-----------------------------0---0--0--0---0--0--0--0--0--0----------------|


   think I'm in trouble yeah,

D|--------------2--0---------------------------------------------------------|
B|--------------------0------------------------------------------------------|
G|-----0--0--0-----------0---------------------------------------------------|
D|-------------------------0---2v--0--2v-2v--0--2v-0--2v-2v-0----------------|
G|--5v----5--5--5--5--5------------------------------------------------------|
D|-----------------------------0---0--0--0---0--0--0--0--0--0----------------|

   I think I'm in trouble   

D|--------------2--0---------------------------------------------------------|
B|--------------------0------------------------------------------------------|
G|-----0--0--0-----------0---------------------------------------------------|
D|-------------------------0---2v--0--2v-2v--0--2v-0--2v-2v-0----------------|
G|--5v----5--5--5--5--5------------------------------------------------------|
D|-----------------------------0---0--0--0---0--0--0--0--0--0----------------|


   I think I'm in troubleeeeeeeeeeeeeee, hohuahahaaaaaa   


D|---------------------------------------------------------------------------|
B|-----5---------5------5-------5--------------------------------------------|
G|-----------7---------------7-----------------------------------------------|
D|---5-----5-----------5----5------------------------------------------------|
G|--5-----5-----5-----5----5---5---------------------------------------------|
D|---------------------------------------------------------------------------|


D|---------------------------------------------------------------------------|
B|---------------------------------------------------------------------------|
G|-----7------7----7------7------7-----7-------------------------------------|
D|----7------7-----------7------7--------------------------------------------|
G|--7-------7-----7-----7------7------7--------------------------------------|
D|---------------------------------------------------------------------------|

   I think I'm in troubleeeeeeeeeeeeeee, hohuahahaaaaaa   


D|---------------------------------------------------------------------------|
B|-----5---------5------5-------5--------------------------------------------|
G|-----------7---------------7-----------------------------------------------|
D|---5-----5-----------5----5------------------------------------------------|
G|--5-----5-----5-----5----5---5---------------------------------------------|
D|---------------------------------------------------------------------------|


D|---------------------------------------------------------------------------|
B|---------------------------------------------------------------------------|
G|-----7------7----7------7------7-----7-------------------------------------|
D|----7------7-----------7------7--------------------------------------------|
G|--7-------7-----7-----7------7------7--------------------------------------|
D|---------------------------------------------------------------------------|

   I think I'm in troubleeeeeeeeeeeeeee, hohuahahaaaaaa   

D|---------------------------------------------------------------------------|
B|-----5---------5------5-------5--------------------------------------------|
G|-----------7---------------7-----------------------------------------------|
D|---5-----5-----------5----5------------------------------------------------|
G|--5-----5-----5-----5----5---5---------------------------------------------|
D|---------------------------------------------------------------------------|


D|---------------------------------------------------------------------------|
B|---------------------------------------------------------------------------|
G|-----7------7----7------7------7-----7-------------------------------------|
D|----7------7-----------7------7--------------------------------------------|
G|--7-------7-----7-----7------7------7--------------------------------------|
D|---------------------------------------------------------------------------|
  
I think I'm in trouble

D|--------------2--0---------------------------------------------------------|
B|--------------------0------------------------------------------------------|
G|-----0--0--0-----------0---------------------------------------------------|
D|-------------------------0---2v--0--2v-2v--0--2v-0--2v-2v-0----------------|
G|--5v----5--5--5--5--5------------------------------------------------------|
D|-----------------------------0---0--0--0---0--0--0--0--0--0----------------|




************************************
| d   Down
| u   Up
| h   Hammer-on
| p   Pull-off
************************************
Suggest correction
Creating personal tab
Creating personal tab
You can edit any tab online and save it as your Personal.

You can edit, replace or remove any tab part or add personal notes – all changes will be seen only by you.

Personal tabs can be accessed anytime from any device, even offline.
Learn more »
Give kudos to tab author, rate the tab!
1 2 3 4 5
comments
print report bad tab
guest
You may want to rate the tab now too:
select rating
Wanna post a correction for this tab? Suggest correction