Oops, an error
Loading. Please wait.

Trouble Live tab

version 3
version 3

Whole song

  • This is 'Trouble' like Lindsey played it on the "S... Show more
  • This is "Trouble" like Lindsey played it on the "S... Show more
217 views 9 this week
no commentswrite comment
1 2 3 4 5
3 more votes to show rating
add to favorites
×
Save as Personal and add changes to this tab that will be seen only by you. Learn more ›
×
You can save this tab as Personal to edit and correct it or add notes. All changes will be seen only by you. Learn more »
launch autoscroll
font size
0
reset
how to read this tab
guitar tuner
edit
Autoscroll
slow
fast
+/-
esc
set tempo
stop
About this tab version
This is "Trouble" like Lindsey played it on the "Songs From The Small Machine" DVD. He does it a bit differently every time he performs that song and this is the tab for that exact version. It's a great song to play, so have fun :-). Was this info helpful? Yes No
[Intro]

D|---|-----0-----------|-----0-----------|-----------------|---------------0-|
B|---|---0-------0-----|---0-------0-----|-----8-----7---8-|-----8-----7-----|
G|-2-|---------2-----2-|---------2-----2-|-----------------|-----------------|
D|---|-------0---------|-------0---------|---9---9-----9---|---9---9-----9---|
G|---|-0-------0---0---|-0-------0---0---|-9-------9-------|-9-------9-------|
D|---|-----------------|-----------------|-----------------|-----------------|

D|---------------0-|-----------------|-----------------|-----------------|
B|-----0-----0-----|-----0-----0-----|-----8-----7-----|-----8-----7-----|
G|---2-----2-------|---2-----2-------|-----------------|-----------------|
D|-------0-----0---|-------0---------|---9---9-----9---|---9---9---------|
G|-0-------0-------|-0-------0---0---|-9-------9-------|-9-------9---9---|
D|-----------------|-----------------|-----------------|-----------------|


[Verse 1]

  "I should be saying goodnight now..."
D|-----------------|-----------------|-----------------|-----------------|
B|-----0-----0 ----|-----0-----0-----|---8-8-----7---8-|-----8-----7-----|
G|---2-----2-------|---2-----2-------|-----------------|-----------------|
D|-------0-----0---|-------0---------|--(9)--9-----9---|---9---9-----9---|
G|-0-------0-------|-0-------0---0---|-9-------9-------|-9-------9-------|
D|-----------------|-----------------|-----------------|-----------------|

D|-----------------|-----------------|-----------------|-----------------|
B|-----0-----0 ----|-----0-----0-----|---8-8-----7---8-|-----8-----7-----|
G|---2-----2-------|---2-----2-------|-----------------|-----------------|
D|-------0-----0---|-------0---------|--(9)--9-----9---|---9---9-----9---|
G|-0-------0-------|-0-------0---0---|-9-------9-------|-9-------9-------|
D|-----------------|-----------------|-----------------|-----------------|
                             "I should___
D|---------------0-|-----------------|
B|-----0-----0-----|-----0-----0-----|
G|---2-----2-------|---2-----2-------|
D|-------0-----0---|-------0---------|
G|-0-------0-------|-0-------0---0---|
D|-----------------|-----------------|

[Chorus]

  "___run on the double..."
D|-----------------|-----------------|---------------5-|-----------------|
B|-----8-----7---8-|-----8-----7-----|-----5-----5-----|-----5-----5-----|
G|-----------------|-----------------|---7-----7-------|---7-----7-------|
D|---9---9-----9---|---9---9-----9---|-------5-----5---|-------5-----5---|
G|-9-------9-------|-9-------9-------|-5-------5-------|-5-------5-------|
D|-----------------|-----------------|-----------------|-----------------|
                          "I think I'm in trouble..."
D|---------------7-|-----------------|-------------2-0-|-----------------|
B|-----7-----7-----|-----7-----7-----|-----------------|-----0-----------|
G|---9-----9-------|---9-----9-------|-----0-----0-----|---0-----0-------|
D|-------7-----7---|-------7---------|-----------------|-------------0---|
G|-7-------7-------|-7-------7-----0-|-5-----5-5-------|-5-----5-5-------|
D|-----------------|-----------------|-----------------|-----------------|

D|-----------------|-----------------|-------------2-0-|-----------------|
B|-----------------|-----------------|-----------------|-----0-----------|
G|-----------------|-----------------|-----0-----0-----|--0------0-------|
D|-2~--0---2~2~0-2~|-----0---2~2~0---|-----------------|-------------0---|
G|-----------------|-----------------|-5-----5-5-------|-5-----5-5-------|
D|-0-----0-0-------|-0-----0-0-------|-----------------|-----------------|

D|-----------------|-----------------|-------------2-0-|-----------------|
B|-----------------|-----------------|-----------------|-----0-----------|
G|-----------------|-----------------|-----0-----0-----|---0-----0-------|
D|-2~--0---2~2~0-2~|-----0---2~--0---|-----------------|-------------0---|
G|-----------------|-----------------|-5-----5-5-------|-5-----5-5-------|
D|-0-----0-0-------|-0-----0-0-------|-----------------|-----------------|

D|-----------------|-----------------|
B|-----------------|-----------------|
G|-----------------|-----------------|
D|-2~--0---2~--0-2~|-----0---2~--0---|
G|-----------------|-----------------|
D|-0-------0-------|-0-----0-0-------|

[Verse 2]    

  "So come to me darling and hold me..."
D|-----------------|-----------------|-----------------|-----------------|
B|-----0-----0 ----|-----0-----0-----|-----8-----7---8-|-----8-----7-----|
G|---2-----2-------|---2-----2-------|-----------------|-----------------|
D|-------0-----0---|-------0---------|---9---9-----9---|---9---9-----9---|
G|-0-------0-------|-0-------0---0---|-9-------9-------|-9-------9-------|
D|-----------------|-----------------|-----------------|-----------------|

D|-----------------|-----------------|-----------------|-----------------|
B|-----0-----0 ----|-----0-----0-----|-----8-----7---8-|-----8-----7-----|
G|---2-----2-------|---2-----2-------|-----------------|-----------------|
D|-------0-----0---|-------0---------|---9---9-----9---|---9---9-----9---|
G|-0-------0-------|-0-------0---0---|-9-------9-------|-9-------9-------|
D|-----------------|-----------------|-----------------|-----------------|
                             "I should___
D|---------------0-|-----------------|
B|-----0-----0-----|-----0-----0-----|
G|---2-----2-------|---2-----2-------|
D|-------0---------|-------0---------|
G|-0-------0---0---|-0-------0---0---|
D|-----------------|-----------------|

[Chorus]

  "___run on the double..."
D|-----------------|-----------------|---------------5-|-----------------|
B|-----8-----7---8-|-----8-----7-----|-----5-----5-----|-----5-----5-----|
G|-----------------|-----------------|---7-----7-------|---7-----7-------|
D|---9---9-----9---|---9---9-----9---|-------5-----5---|-------5-----5---|
G|-9-------9-------|-9-------9-------|-5-------5-------|-5-------5-------|
D|-----------------|-----------------|-----------------|-----------------|
                          "I think I'm in trouble..."
D|---------------7-|-----------------|-------------2-0-|-----------------|
B|-----7-----7-----|-----7-----7-----|-----------------|-----0-----------|
G|---9-----9-------|---9-----9-------|-----0-----0-----|---0-----0-------|
D|-------7-----7---|-------7---------|-----------------|-------------0---|
G|-7-------7-------|-7-------7---7---|-5-----5-5-------|-5-----5-5-------|
D|-----------------|-----------------|-----------------|-----------------|

D|-----------------|-----------------|-------------2-0-|-----------------|
B|-----------------|-----------------|-----------------|-----0-----------|
G|-----------------|-----------------|-----0-----0-----|---0-----0-------|
D|-2~--0---2~2~0-2~|-----0---2~2~0---|-----------------|-------------0---|
G|-----------------|-----------------|-5-----5-5-------|-5-----5-5-------|
D|-0-----0-0-------|-0-----0-0-------|-----------------|-----------------|

D|-----------------|-----------------|-------------2-0-|-----------------|
B|-----------------|-----------------|-----------------|-----0-----------|
G|-----------------|-----------------|-----0-----0-----|---0-----0-------|
D|-2~--0---2~2~0-2~|-----0---2~--0---|-----------------|-------------0---|
G|-----------------|-----------------|-5-----5-5-------|-5-----5-5-------|
D|-0-----0-0-------|-0-----0-0-------|-----------------|-----------------|

D|-----------------|---------------5-|
B|-----------------|-----------------|
G|-----------------|-----------------|
D|-2~--0---2~--0-2~|-----0---2~--0---|
G|-----------------|-----------------|
D|-0-------0-------|-0-----0-0-------|

[Solo]

D|-4-5-7-4-5-7----4|-h-5-7-4-5-7---4-|---5-4-5-2h4p2-0h2-|-----0-----------|
B|-----------------|-----------------|-------------------|-0---------------|
G|-----------------|-----------------|-------------------|-----------------|
D|-----------------|-----------------|-2-----2-2-----2---|-2-----2-2-2-2---|
G|-0-----0-0---0---|-0-----0-0---0---|-------------------|-----------------|
D|-----------------|-----------------|-------------------|-----------------|

D|-4-5-7-4-5-7----4|-h-5-7-4-5-7---4-|---5-4-5-2h4p2-2h4p2-|-0h2p0---0-----------|
B|-----------------|-----------------|---------------------|-------0------0------|
G|-----------------|-----------------|---------------------|-----------0h2-----0-|
D|-----------------|-----------------|-2-----2-2-----2-----|-2--------------0h2--|
G|-0-----0-0---0---|-0-----0-0---0---|---------------------|---------------------|
D|-----------------|-----------------|---------------------|---------------------|
                                    "I should___"
D|--0-------0p0-0p0-0p0---|-----0-----0-0---|
B|----0-----1p0-1p0-1p0---|-----0-----0-0---|
G|------0---0p0-0p0-0p0---|-----0-----0-0---|
D|--------0-2p0-2p0-2p0---|-----0-----0-0---|
G|-0--------0p0-0p0-0p0---|-0---0---0-0-0-7-|
D|------------------------|-----------------|

[Chorus]

  "___run on the double..."
D|-----------------|-----------------|---------------5-|-----------------|
B|-----8-----7---8-|-----8-----------|-----5-----5-----|-----5-----5-----|
G|-----------------|-----------0-----|---7-----7-------|---7-----7-------|
D|---9-------------|---9---------9---|-------5-----5---|-------5-----5---|
G|-9-----9-9---9---|-9-----9-9-------|-5-------5-------|-5-------5-------|
D|-----------------|-----------------|-----------------|-----------------|
                          "I think I'm in trouble..."
D|---------------7-|-----------------|-------------2-0-|-----------------|
B|-----7-----7-----|-----7-----7-----|-----------------|-----0-----------|
G|---9-----9-------|---9-----9-------|-----0-----0-----|---0-----0-------|
D|-------7-----7---|-------7---------|-----------------|-------------0---|
G|-7-------7-------|-7-------7---7---|-5-----5-5-------|-5-----5-5-------|
D|-----------------|-----------------|-----------------|-----------------|

D|-----------------|-----------------|-------------2-0-|-----------------|
B|-----------------|-----------------|-----------------|-----0-----------|
G|-----------------|-----------------|-----0-----0-----|---0-----0-------|
D|-2~--0---2~2~0-2~|-----0---2~2~0---|-----------------|-------------0---|
G|-----------------|---------------0-|-5-----5-5-------|-5-----5-5-------|
D|-0-----0-0-------|-0-----0-0-------|-----------------|-----------------|

D|-----------------|-----------------|-------------2-0-|-----------------|
B|-----------------|-----------------|-----------------|-----0-----------|
G|-----------------|-----------------|-----0-----0-----|---0-----0-------|
D|-2~--0---2~2~0-2~|-----0---2~--0---|-----------------|-------------0---|
G|-----------------|---------------0-|-5-----5-5-------|-5-----5-5-------|
D|-0-----0-0-------|-0-----0-0-------|-----------------|-----------------|
                                       
D|-----------------|-----------------|-----5-----5-----|-----5-----5-----|
B|-----------------|-----------------|---5-5---5-5---5-|---5-5---5-5---5-|
G|-----------------|-----------------|-7-7---7-7---7-7-|-7-7---7-7---7-7-|
D|-2~--0---2~--0-2~|-----0---2~--0---|-5-----5-----5---|-5-----5-----5---|
G|-----------------|-----------------|-5-----5-----5---|-5-----5-----5---|
D|-0-------0-------|-0-----0-0-------|-----------------|-----------------|

D|-----7-----7-----|-----7-----7-----|-----5-----5-----|-----5-----5-----|
B|---7-7---7-7---7-|---7-7---7-7-----|---5-5---5-5---5-|---5-5---5-5---5-|
G|-9-9---9-9---9-9-|-9-9---9-9---9---|-7-7---7-7---7-7-|-7-7---7-7---7-7-|
D|-7-----7-----7---|-7-----7-----7---|-5-----5-----5---|-5-----5-----5---|
G|-7-----7-----7---|-7-----7-----7---|-5-----5-----5---|-5-----5-----5---|
D|-----------------|-----------------|-----------------|-----------------|

D|-----7-----7-----|-----7-----7-----|-----5-----5-----|-----5-----5-----|
B|---7-7---7-7---7-|---7-7---7-7---0-|---5-5---5-5---5-|---5-5---5-5-----|
G|-9-9---9-9---9-9-|-9-9---9-9---9-0-|-7-7---7-7---7-7-|-7-7---7-7---7---|
D|-7-----7-----7---|-7-----7-----7---|-5-----5-----5---|-5-----5-----5---|
G|-7-----7-----7---|-7-----7-----7---|-5-----5-----5---|-5-----5-----5---|
D|-----------------|-----------------|-----------------|-----------------|

D|-----7-----7-----|-----7-----7-----|-------------2-0-|-----------------|
B|---7-7---7-7---7-|---7-7---7-7-----|-----------------|-----0-----------|
G|-9-9---9-9---9-9-|-9-9---9-9---9---|-----0-----0-----|---------0-------|
D|-7-----7-----7---|-7-----7-----7---|-----------------|-------------0---|
G|-7-----7-----7---|-7-----7-----7-0-|-5-----5-5-------|-5-----5-5-------|
D|-----------------|-----------------|-----------------|-----------------|

D|-----------------|-----------------|
B|-----------------|-----------------|
G|-----------------|-----------------|
D|-2~--0---2~--0---|-2~--------------|
G|-----------------|-----------------|
D|-0-------0-------|-0---------------|


************************************
| h   Hammer-on
| p   Pull-off
| ~   Vibrato
************************************

            
            
Suggest correction
Creating personal tab
Creating personal tab
You can edit any tab online and save it as your Personal.

You can edit, replace or remove any tab part or add personal notes – all changes will be seen only by you.

Personal tabs can be accessed anytime from any device, even offline.
Learn more »
Give kudos to tab author, rate the tab!
1 2 3 4 5
comments
print report bad tab
guest
You may want to rate the tab now too:
select rating
Wanna post a correction for this tab? Suggest correction