Oops, an error
Loading. Please wait.

Unravel solo tab

version 2
version 2

Solo

Whole song

  • This version is for the low tuned version (https:/... Show more

Interactive

3,234 views 18 this week
no commentswrite comment
1 2 3 4 5
2 more votes to show rating
add to favorites
×
Save as Personal and add changes to this tab that will be seen only by you. Learn more ›
×
You can save this tab as Personal to edit and correct it or add notes. All changes will be seen only by you. Learn more »
launch autoscroll
font size
0
reset
how to read this tab
guitar tuner
edit
Autoscroll
slow
fast
+/-
esc
set tempo
stop
Author
Difficulty
Ling Tosite Sigure  - Unravel Solo
Standard tuning 
Enjoy!

Listening to the solo to figure out strumming patterns and timing
After the "Unravel Ghoul!" scream:
(Pick really fast alternating up and down strokes)
e|----------------13----------------13---|
B|--12---15-14---------12--15-14---------|
G|-------------12----------------12------|
D|---------------------------------------|
A|---------------------------------------|
E|---------------------------------------|

e|-------------------------------18-18-18-18-17----------------|
B|--15------15---------------------------------18--------------|
G|----15-15---15-15-/17-15------------------------19-19-19-19--|
D|-------------------------15----------------------------------|
A|-------------------------------------------------------------|
E|-------------------------------------------------------------|
(Pick really fast)
e|--/18\--/18\--/18\--/20\----------------------|
B|----------------------------------------------|
G|----------------------------------------------|
D|----------------------------------------------|
A|----------------------------------------------|
E|----------------------------------------------|
Suggest correction
Creating personal tab
Creating personal tab
You can edit any tab online and save it as your Personal.

You can edit, replace or remove any tab part or add personal notes – all changes will be seen only by you.

Personal tabs can be accessed anytime from any device, even offline.
Learn more »
Give kudos to tab author, rate the tab!
1 2 3 4 5
comments
print report bad tab
guest
You may want to rate the tab now too:
select rating
Wanna post a correction for this tab? Suggest correction