Oops, an error
Loading. Please wait.

Unravel Tab

version 1
version 1

Whole song

  • This version is for the low tuned version (https:/... Show more

Interactive

226 views 21 this week
1 commentread comment
1 2 3 4 5
2 more votes to show rating
add to favorites
launch autoscroll
font size
0
reset
how to read this tab
guitar tuner
Autoscroll
slow
fast
+/-
esc
set tempo
stop
Help us to improve Ultimate-Guitar.com Take our survey!
×
Author
Difficulty
intermediate
Unravel By Ling Tosite Sigure
Credits to KaiXros (https://www.youtube.com/watch?v=bWVMlF-jUtE)
This is the tab for the unedited (low tuned) version. Strumming is NOT INDICATED. 
Link to song (https://www.youtube.com/watch?v=ZID1wdE_k30)


[Intro] (x3)

e|-----------------------------------------------------------------------------------------------|
B|-11-----11-------11----13-------13-------13----10-------10-------10----11-------11-------11----|
G|----10-----10-------------10-------10-------------10-------10-------------10-------10----------|
D|-------12-----12----12-------12-------12----12-------12-------12----12-------12-------12----12-|
A|-----------------------------------------------------------------------------------------------|
E|-----------------------------------------------------------------------------------------------|


[Breakdown]

        (x2)                                                                           (x2)
e|---------|----18----15/-------------------------------18----15/---t18-10-h13-t17-10-h13-|
B|---------|-15----15-------20t-13-h15-18t-13-h15--15------15-----------------------------|
G|---------|------------------------------------------------------------------------------|
D|----5----|------------------------------------------------------------------------------|
A|----5----|------------------------------------------------------------------------------|
E|----3----|------------------------------------------------------------------------------|


[Chorus]

Guitar 1 (Rhythm)
                                              
e|-----------------------------------------------------|
B|-----------------------------------------------------|
G|-----8-----10----------7-----8-----10----------3-----|
D|-----8-----10----5-----7-----8-----10----5-----3-----|
A|-----6-----8-----5-----5-----6-----8-----5-----1-----|
E|-----------------3-----------------------3-----------|(x2)

Guitar 2 (Lead)
                              (x2)       (x2)
e|-------------------------------|-------15-|
B|-------------------------------|-15-------|
G|-12-----15-----14-----7-----17-|----15----|
D|-x------x------x------x-----x--|----------|
A|-10-----13-----12-----5-----15-|----------|
E|-------------------------------|----------|

[Solo]
                              (x2)                                                              (x1)
e|-------------------------------|-----------------------------18-18-18-18-17-------------22-------|
B|-------------------------------|-15-------15--------------------------------18---15-----x-----18-|
G|-12-----15-----14-----7-----17-|----15-15----15-15---15~-------------------------x------19----x--|
D|-x------x------x------x-----x--|-------------------------15~---------------------12-----------15-|
A|-10-----13-----12-----5-----15-|-----------------------------------------------------------------|
E|-------------------------------|-----------------------------------------------------------------|


Song Structure:

[Intro]
[Breakdown]
[Verse] (No Guitar)
[Pre-Chorus] (No Guitar)
[Chorus]
[Bridge]
[Solo]
[Pre-Chorus] (No Guitar)
[Chorus]
[Outro] (No Guitar)



************************************

| h  Hammer-on
| t  Tapping
| /  Slide up
| x  Dead note
| ~  Vibrato

************************************
Suggest correction
Give kudos to tab author, rate the tab!
1 2 3 4 5
comments
print report bad tab
1 comment total.
0 reply
meep36001 10 Oct 10, 2016 12:33 AM

Best Song 10/10 Would Unravel Again

guest
You may want to rate the tab now too:
select rating
Wanna post a correction for this tab? Suggest correction