Oops, an error
Loading. Please wait.
We have an official Rumble tab made by UG professional guitarists. Check out the tab »
×

Rumble tab

version 2
version 2

Whole song

  • I think it has more details.
  • This version offers more details.

Interactive

Video

12,835 views 984 this week
2 commentsread comments
1 2 3 4 5
x 9
add to favorites
×
Save as Personal and add changes to this tab that will be seen only by you. Learn more ›
×
You can save this tab as Personal to edit and correct it or add notes. All changes will be seen only by you. Learn more »
launch autoscroll
font size
0
reset
how to read this tab
guitar tuner
backing track
0:00
0:00
edit
Autoscroll
slow
fast
+/-
esc
set tempo
stop
About this tab version
I think it has more details. Was this info helpful? Yes No
-------------------------------------------------------------------------------
                             Rumble - Link Wray
-------------------------------------------------------------------------------
Tabbed by: Gopchu
E-mail: incoldnovemberrain@gmail.com

Tuning: Standard

Personnel:
Link Wray - guitar

Genre: Electric Blues, Instrumental Rock

Play it with distortion
Note:
*D chord you play without your middle finger. So instead of 2. threat of e string you play e string open.


  Dsus2 E  Dsus2 E  Dsus2 A  Dsus2 E  Dsus2 B7
   ↧ ↧  ↧   ↧ ↧   ↧   ↧ ↧  ↧   ↧ ↧  ↧    ↧ ↧    ↧
e|-0-0--0---0-0--0---0-0--0---0-0--0---0-0----1---3-0------------------------|
B|-3-3--0---3-3--0---3-3--2---3-3--0---3-3----0------3-0---------------------|
G|-2-2--1---2-2--1---2-2--2---2-2--1---2-2----2----------2-0-----------------| x2
D|-0-0--2---0-0--2---0-0--2---0-0--2---0-0----1-------------2-0--------------|
A|------2--------2--------0--------2--------2------------------2-0-----------|
E|------0--------0-----------------0------------------------------3b-0-------|

  Dsus2 E
   ↧ ↧  ↧        ↓  ↓  ↓  ↓  ↓  ↓  ↓  ↓  ↓  ↓  ↓  ↓  ↓  ↓  ↓  ↓  ↓  ↓
e|-0-0--0-------12-12-12-12-12-12-12-12-12-12-12-12-12-12-12-12-12-12/11\12--|
B|-3-3--0---\12-12-12-12-12-12-12-12-12-12-12-12-12-12-12-12-12-12-12/11\12--|
G|-2-2--1---\13-13-13-13-13-13-13-13-13-13-13-13-13-13-13-13-13-13-13/12\13--|
D|-0-0--2--------------------------------------------------------------------|
A|------2--------------------------------------------------------------------|
E|------0--------------------------------------------------------------------|


    ↓  ↓  ↓  ↓  ↓  ↓  ↓  ↓  ↓  ↓  ↓  ↓  ↓  ↓  ↓  ↓  ↓  ↓
e|-12-12-12-12-12-12-12-12-12-12-12-12-12-12-12-12-12-12/11\12---------------|
B|-12-12-12-12-12-12-12-12-12-12-12-12-12-12-12-12-12-12/11\12---------------|
G|-13-13-13-13-13-13-13-13-13-13-13-13-13-13-13-13-13-13/12\13---------------|
D|---------------------------------------------------------------------------|
A|---------------------------------------------------------------------------|
E|---------------------------------------------------------------------------|

                                                                 A
    ↓  ↓  ↓  ↓  ↓  ↓  ↓  ↓  ↓  ↓  ↓  ↓        ↓  ↓  ↓  ↓  ↓ ↓    ↧
e|-12-12-12-12-12-12-12-12-12-12-12-12/11\12-12-12-12-12-12-12---0-----------|
B|-12-12-12-12-12-12-12-12-12-12-12-12/11\12-12-12-12-12-12-12---2-----------|
G|-13-13-13-13-13-13-13-13-13-13-13-13/12\13-13-13-13-13-13-13---2-----------|
D|---------------------------------------------------------------2-----------|
A|---------------------------------------------------------------0-----------|
E|---------------------------------------------------------------------------|
 
  Dsus2 E  Dsus2 B7                             Dsus2 E Dsus2  E
   ↧ ↧  ↧    ↧ ↧   ↧                              ↧ ↧  ↧   ↧ ↧  ↧
e|-0-0--0---0-0---1--------3-0-------------------0-0--0---0-0--0-------------|
B|-3-3--0---3-3---0-----------3-0----------------3-3--0---3-3--0-------------|
G|-2-2--1---2-2---2--------------2-0-------------2-2--1---2-2--1-------------|
D|-0-0--2---0-0---1-----------------2-0----------0-0--2---0-0--2-------------|
A|------2--------2---------------------2-0------------2--------2-------------|
E|------0---------------------------------3b-0--------0--------0-------------|

  Dsus2 A  Dsus2 B7                        Dsus2 E
   ↧ ↧  ↧   ↧ ↧   ↧                          ↧ ↧  ↧
e|-0-0--0---2-2--1---3-0--------------------0-0--0---------------------------|
B|-3-3--2---3-3--0------3-0-----------------3-3--0---------------------------|
G|-2-2--2---2-2--2---------2-0--------------2-2--1---------------------------|  This you play with Echo
D|-0-0--2---0-0--1------------2-0-----------0-0--2---------------------------|
A|------0--------2---------------2-0-------------2---------------------------|
E|----------------------------------3b-0---------0---------------------------|



************************************

| /   slide up
| \   slide down
| h   hammer-on
| p   pull-off
| ~   vibrato
| +   harmonic
| x   Mute note
| b   Bend
| pb  Pre-bend
| br  Bend release
| pbr Pre-bend release
| brb Bend release bend
| ↧   Play chord down so that you can hear every string
| ↓   Down

************************************

************************************

Actual song:
https://www.youtube.com/watch?v=ucTg6rZJCu4


************************************

            
            
Suggest correction
Creating personal tab
Creating personal tab
You can edit any tab online and save it as your Personal.

You can edit, replace or remove any tab part or add personal notes – all changes will be seen only by you.

Personal tabs can be accessed anytime from any device, even offline.
Learn more »
comments
print report bad tab
2 comments total.
0 reply
Jack Shizz 187 Sep 30, 2016 10:53 PM

thank you!!

0 reply
sellsoap 10 Sep 03, 2017 03:29 AM

Very nice!

guest
You may want to rate the tab now too:
select rating
Wanna post a correction for this tab? Suggest correction