Oops, an error
Loading. Please wait.

A Line In The Sand tab

version 3
version 3

Whole song

  • Very accurate, many additions like new guitar part... Show more

Interactive

997 views 3 this week
no commentswrite comment
1 2 3 4 5
x 3
add to favorites
×
Save as Personal and add changes to this tab that will be seen only by you. Learn more ›
×
You can save this tab as Personal to edit and correct it or add notes. All changes will be seen only by you. Learn more »
launch autoscroll
font size
0
reset
how to read this tab
guitar tuner
edit
Autoscroll
slow
fast
+/-
esc
set tempo
stop
About this tab version
Very accurate, many additions like new guitar parts and an extended guitar solo. Was this info helpful? Yes No
Linkin Park - A line in the sand (extended version)


Album: The hunting party (2014)


Tuning: DADGBe (Drop D)



tabbed by myGuitarCoversHD and Astat (http://profile.ultimate-guitar.com/Astat/)




Check out my youtube cover:  https://www.youtube.com/watch?v=-WHpjzr86_I



----------------------------------------------------------------------------------------------------------------

So, big shouts out to Astat for this one. He has already delievered a pretty much perfect tab and I will only 
make some minor changes on his rhythm part and will add some parts which aren't actually there on the 
studio version( + the extended guitar solo).



I will put the solo at the very end to avoid any confusion.




Guitar 1 - D A D G B E (Distorted)
Guitar 2 - D A D G B E (Distorted)
Guitar 3 - D A D G B E (Distorted)
Guitar 4 - D A D G B E (Distorted w/treble boost and slow EQ sweep)
Guitar 5 - D A D G B E (Distorted)




Intro: I will update this tab in the future with the guitar part for the intro!




Post-Verse (1:18) - Guitar 1
|--------------------------------------------------------------------------------------------------|
|--------------------------------------------------------------------------------------------------|
|--------------7-----------7-----------------7-----------------7-----------------------------------|
|--0--0--0--0--x-----0--0--x-----0--0--0--0--x-----0--0--0--0--x-----0--0--5-h7--0--3-h5--0--2-h3--|
|--0--0--0--0--5-----0--0--5-----0--0--0--0--5-----0--0--0--0--5-----0--0--5-h7--0--3-h5--0--2-h3--|
|--0--0--0--0--------0--0--------0--0--0--0--------0--0--0--0--------0--0--5-h7--0--3-h5--0--2-h3--|
PM .  .  .  .        .  .        .  .  .  .        .  .  .  .        .  .        .        .

(Guitars 1 and 2)
|--------------------------------------------------------------------------------------------------|
|--------------------------------------------------------------------------------------------------|
|--------------7-----------7-----------------7-----------------7-----------------------------------|
|--0--0--0--0--x-----0--0--x-----0--0--0--0--x-----0--0--0--0--x-----0--0--5-h7--0--3-h5--0--2-h3--|
|--0--0--0--0--5-----0--0--5-----0--0--0--0--5-----0--0--0--0--5-----0--0--5-h7--0--3-h5--0--2-h3--|
|--0--0--0--0--------0--0--------0--0--0--0--------0--0--0--0--------0--0--5-h7--0--3-h5--0--2-h3--|
PM .  .  .  .        .  .        .  .  .  .        .  .  .  .        .  .        .        .

1:28
|---------------------------------------------------------------------------------------------------|
|---------------------------------------------------------------------------------------------------|
|---------------------------------------------------------------------------------------------------|
|---0--0--0--0--0-----0--0--0-----0--0--0--0--0--0--7--7--7--7--7--7--7--7--7--7--7--7--7--7--7--7--|
|---0--0--0--0--0-----0--0--0-----0--0--0--0--0--0--7--7--7--7--7--7--7--7--7--7--7--7--7--7--7--7--|
|---0--0--0--0--0-----0--0--0-----0--0--0--0--0--0--7--7--7--7--7--7--7--7--7--7--7--7--7--7--7--7--|
|PM .  .  .  .        .  .        .  .  .  .  .  .
|Guitars 1 and 2
|
|---------------------------------------------------------------------------------------------------|
|---------------------------------------------------------------------------------------------------|
|---------------7-----------7-----------7-/10-9-\7--5--5--5--5--5--5--5--5--9--9--9--9--9--9--9--9--|
|---x--x--x--x--x-----x--x--x-----x--x--x--x--x--x--x--x--x--x--x--x--x--x--x--x--x--x--x--x--x--x--|
|---x--x--x--x--5-----x--x--5-----x--x--5-/8--7-\5--3--3--3--3--3--3--3--3--7--7--7--7--7--7--7--7--|
|---x--x--x--x--------x--x--------x--x--------------------------------------------------------------|
|Guitar 3

|---------------------------------------------------------------------------------------------------|
|---------------------------------------------------------------------------------------------------|
|---------------------------------------------------------------------------------------------------|
|---8--8--8--8--8-----8--8--8-----8--8--8--8--8--8--3--3--3--3--3--3--3--3--7--7--7--7--7--7--7--7--|
|---8--8--8--8--8-----8--8--8-----8--8--8--8--8--8--3--3--3--3--3--3--3--3--7--7--7--7--7--7--7--7--|
|---8--8--8--8--8-----8--8--8-----8--8--8--8--8--8--3--3--3--3--3--3--3--3--7--7--7--7--7--7--7--7--|
|PM .  .  .  .        .  .
|Guitars 1 and 2
|
|---------------------------------------------------------------------------------------------------|
|---------------------------------------------------------------------------------------------------|
|---------------7-----------7-----------7-/10-9-\7--10-10-10-10-10-10-10-10-14-14-14-14-14-14-14-14-|
|---x--x--x--x--x-----x--x--x-----x--x--x--x--x--x--x--x--x--x--x--x--x--x--x--x--x--x--x--x--x--x--|
|---x--x--x--x--5-----x--x--5-----x--x--5-/8--7-\5--8--8--8--8--8--8--8--8--12-12-12-12-12-12-12-12-|
|---x--x--x--x--------x--x--------x--x--------------------------------------------------------------|
|Guitar 3

|---------------------------------------------------------------------------------------------------|
|---------------------------------------------------------------------------------------------------|
|---------------------------------------------------------------------------------------------------|
|---0--0--0--0--0-----0--0--0-----0--0--0--0--0--0--7--7--7--7--7--7--7--7--7--7--7--7--7--7--7--7--|
|---0--0--0--0--0-----0--0--0-----0--0--0--0--0--0--7--7--7--7--7--7--7--7--7--7--7--7--7--7--7--7--|
|---0--0--0--0--0-----0--0--0-----0--0--0--0--0--0--7--7--7--7--7--7--7--7--7--7--7--7--7--7--7--7--|
|PM .  .  .  .        .  .        .  .  .  .  .  .
|Guitars 1 and 2
|
|---------------------------------------------------------------------------------------------------|
|---------------------------------------------------------------------------------------------------|
|---------------7-----------7-----------7-/10-9-\7--5--5--5--5--5--5--5--5--9--9--9--9--9--9--9--9--|
|---x--x--x--x--x-----x--x--x-----x--x--x--x--x--x--x--x--x--x--x--x--x--x--x--x--x--x--x--x--x--x--|
|---x--x--x--x--5-----x--x--5-----x--x--5-/8--7-\5--3--3--3--3--3--3--3--3--7--7--7--7--7--7--7--7--|
|---x--x--x--x--------x--x--------x--x--------------------------------------------------------------|
|Guitar 3

|---------------------------------------------------------------------------------------------------|
|---------------------------------------------------------------------------------------------------|
|---------------------------------------------------------------------------------------------------|
|---8--8--8--8--8-----8--8--8-----8--8--8--8--8--8--3--3--3--3--3--3--3--3--7--7--7--7--7--7--7--7--|
|---8--8--8--8--8-----8--8--8-----8--8--8--8--8--8--3--3--3--3--3--3--3--3--7--7--7--7--7--7--7--7--|
|---8--8--8--8--8-----8--8--8-----8--8--8--8--8--8--3--3--3--3--3--3--3--3--7--7--7--7--7--7--7--7--|
|PM .  .  .  .        .  .
|Guitars 1 and 2
|
|---------------------------------------------------------------------------------------------------|
|---------------------------------------------------------------------------------------------------|
|---------------7-----------7-----------7-/10-9-\7--10-10-10-10-10-10-10-12--9--9--9--9--9--9--9--9-|
|---x--x--x--x--x-----x--x--x-----x--x--x--x--x--x--x--x--x--x--x--x--x---x--x--x--x--x--x--x--x--x-|
|---x--x--x--x--5-----x--x--5-----x--x--5-/8--7-\5--8--8--8--8--8--8--8--10--7--7--7--7--7--7--7--7-|
|---x--x--x--x--------x--x--------x--x--------------------------------------------------------------|
|Guitar 3                                                                (!)


1:47
|---------------------------------------------------------------------------------------------------|
|---------------------------------------------------------------------------------------------------|
|---------------------------------------------------------------------------------------------------|
|---0--0--0--0--0-----0--0--0-----0--0--0--0--0-----0--0--0--0--0-----0--0--5-h7--0--3-h5--0--2-h3--|
|---0--0--0--0--0-----0--0--0-----0--0--0--0--0-----0--0--0--0--0-----0--0--5-h7--0--3-h5--0--2-h3--|
|---0--0--0--0--0-----0--0--0-----0--0--0--0--0-----0--0--0--0--0-----0--0--5-h7--0--3-h5--0--2-h3--|
|PM .  .  .  .        .  .        .  .  .  .        .  .  .  .        .  .        .        .
|Guitars 1 and 2
|
|---------------------------------------------------------------------------------------------------|
|---------------------------------------------------------------------------------------------------|
|---------------7-----------7-----------------7-----------------7-----------------------------------|
|---0--0--0--0--x-----0--0--x-----0--0--0--0--x-----0--0--0--0--x-----0--0--5-h7--0--3-h5--0--2-h3--|
|---0--0--0--0--5-----0--0--5-----0--0--0--0--5-----0--0--0--0--5-----0--0--5-h7--0--3-h5--0--2-h3--|
|---0--0--0--0--------0--0--------0--0--0--0--------0--0--0--0--------0--0--5-h7--0--3-h5--0--2-h3--|
|PM .  .  .  .        .  .        .  .  .  .        .  .  .  .        .  .        .        .
|Guitar 3

(Guitars 1, 2, and 3)
|-------------------------------------------------------------------------------------------------|
|-------------------------------------------------------------------------------------------------|
|-------------------------------------------------------------------------------------------------|
|-0~----------------------------------------------------------------------------------------------|
|-0~----------------------------------------------------------------------------------------------|
|-0~----------------------------------------------------------------------------------------------|



I am using 2 guitars for the second verse. First comes the part which also appears on the
studio version.




Astat's way of playing the verse: 



2nd Verse (1:57) - Guitar 4 (w/EQ sweep all the way down)
|-------------------------------------------------------------------------------------------------|
|-------------------------------------------------------------------------------------------------|
|-------------7-----------7-----------------7-----------------7-----------7-----------------7-----|
|-x--x--x--x--x-----x--x--x-----x--x--x--x--x-----x--x--x--x--x-----x--x--x-----x--x--x--x--x-----|
|-x--x--x--x--5-----x--x--5-----x--x--x--x--5-----x--x--x--x--5-----x--x--5-----x--x--x--x--5-----|
|-x--x--x--x--------x--x--------x--x--x--x--------x--x--x--x--------x--x--------x--x--x--x--------|

|-------------------------------------------------------------------------------------------------|
|-------------------------------------------------------------------------------------------------|
|-------------7-----------7-----------------7-----------------7-----------7-----------------7-----|
|-x--x--x--x--x-----x--x--x-----x--x--x--x--x-----x--x--x--x--x-----x--x--x-----x--x--x--x--x-----|
|-x--x--x--x--5-----x--x--5-----x--x--x--x--5-----x--x--x--x--5-----x--x--5-----x--x--x--x--5-----|
|-x--x--x--x--------x--x--------x--x--x--x--------x--x--x--x--------x--x--------x--x--x--x--------|

|-------------------------------------------------------------------------------------------------|
|-------------------------------------------------------------------------------------------------|
|-------------7-----------7-----------------7-----------------7-----------7-----------------7-----|
|-x--x--x--x--x-----x--x--x-----x--x--x--x--x-----x--x--x--x--x-----x--x--x-----x--x--x--x--x-----|
|-x--x--x--x--5-----x--x--5-----x--x--x--x--5-----x--x--x--x--5-----x--x--5-----x--x--x--x--5-----|
|-x--x--x--x--------x--x--------x--x--x--x--------x--x--x--x--------x--x--------x--x--x--x--------|

|-------------------------------------------------------------------------------------------------|
|-------------------------------------------------------------------------------------------------|
|-------------7-----------7-----------------7-----------------7-----------7-----------------7-----|
|-x--x--x--x--x-----x--x--x-----x--x--x--x--x-----x--x--x--x--x-----x--x--x-----x--x--x--x--x-----|
|-x--x--x--x--5-----x--x--5-----x--x--x--x--5-----x--x--x--x--5-----x--x--5-----x--x--x--x--5-----|
|-x--x--x--x--------x--x--------x--x--x--x--------x--x--x--x--------x--x--------x--x--x--x--------|

2:16 - Guitar 4 (Begin EQ sweep)
|-------------------------------------------------------------------------------------------------|
|-------------------------------------------------------------------------------------------------|
|-------------7-----------7-----------------7-----------------7-----------7-----------------7-----|
|-x--x--x--x--x-----x--x--x-----x--x--x--x--x-----x--x--x--x--x-----x--x--x-----x--x--x--x--x-----|
|-x--x--x--x--5-----x--x--5-----x--x--x--x--5-----x--x--x--x--5-----x--x--5-----x--x--x--x--5-----|
|-x--x--x--x--------x--x--------x--x--x--x--------x--x--x--x--------x--x--------x--x--x--x--------|

|-------------------------------------------------------------------------------------------------|
|-------------------------------------------------------------------------------------------------|
|-------------7-----------7-----------------7-----------------7-----------7-----------------7-----|
|-x--x--x--x--x-----x--x--x-----x--x--x--x--x-----x--x--x--x--x-----x--x--x-----x--x--x--x--x-----|
|-x--x--x--x--5-----x--x--5-----x--x--x--x--5-----x--x--x--x--5-----x--x--5-----x--x--x--x--5-----|
|-x--x--x--x--------x--x--------x--x--x--x--------x--x--x--x--------x--x--------x--x--x--x--------|

|-------------------------------------------------------------------------------------------------|
|-------------------------------------------------------------------------------------------------|
|-------------7-----------7-----------------7-----------------7-----------7-----------------7-----|
|-x--x--x--x--x-----x--x--x-----x--x--x--x--x-----x--x--x--x--x-----x--x--x-----x--x--x--x--x-----|
|-x--x--x--x--5-----x--x--5-----x--x--x--x--5-----x--x--x--x--5-----x--x--5-----x--x--x--x--5-----|
|-x--x--x--x--------x--x--------x--x--x--x--------x--x--x--x--------x--x--------x--x--x--x--------|



(!!!) If you have some problems getting the effects sound right on this verse part
[talking about the part starting at 2:16 with the EQ sweep effect ), you may try out my version 
for which you don't need any particular effect (other then disortion). Although this will not sound 
inch perfect, it comes pretty close.



2:16 - [Distorted]


|-------------------------------------------------------------------------------------------------|
|-------------------------------------------------------------------------------------------------|
|-------------------------------------------------------------------------------------------------|
|-------------------------------------------------------------------------5*----------------5*----|
|-------------5*----------5*----------------5*----------------5*----------------x--x--x--x--------|
|-x--x--x--x--------x--x--------x--x--x--x--------x--x--x--x--------x--x--------------------------|


|-------------------------------------------------------------------------------------------------|
|-------------------------------------------------------------------------------------------------|
|-------------------------------------------------------------------------------------------------|
|-------------5*----------5*----------------5*----------------3.1*--x--x--3.1*--x--x--x--x--3.1*--|
|-x--x--x--x--------x--x--------x--x--x--x--------x--x--x--x--------------------------------------|
|-------------------------------------------------------------------------------------------------|


|-------------------------------------------------------------------------------------------------|
|-------------------------------------------------------------------------------------------------|
|-------------------------------------------------------------3.1*--------3.1*--------------3.1*--|
|-x--x--x--x--3.1*--x--x--3.1*--x--x--x--x--3.1*--x--x--x--x--------x--x--------x--x--x--x--------|
|-------------------------------------------------------------------------------------------------|
|-------------------------------------------------------------------------------------------------|


|--------------------------------------------------------------------------------|
|--------------------------------------------------------------------------------|
|-------------3.1*--------3.1*--------------3.1*--------------3.1*--------3.1*~--|
|-x--x--x--x--------x--x--------x--x--x--x--------x--x--x--x--------x--x---------|
|--------------------------------------------------------------------------------|
|--------------------------------------------------------------------------------|




Now for the second guitar [clean; (rotator + a lot of reverb and delay)]


For the first section I used an e-bow, it won't sound as smooth when you don't have one but it 
still will work out fine.


e-bow Part


|-----------------------------------------|
|-----------------------------------------|
|-----------------------------------------|
|-----------------------------------------|
|-5~----/7~----/8~----/10~----/7~----/5~--|
|-----------------------------------------|



after that comes:

(a little tip: set the volume control to zero, then pick the notes and quickly
 let up on the control, repeat that on every chord)


|-----------------------------|
|-3~----5~---10~---12~---14~--|
|-2~----2~----x-----x-----x---|
|-0~----0~----8~---10~---12~--|
|-----------------------------|
|-----------------------------|



|-------------------------------------------------------------------------------------------------|
|-------------------------------------------------------------------------------------------------|
|-------------------------------------------------5*~---------------------------------------------|
|----------------------------(fade in w/feedback)-5*~---------------------------------------------|
|-------------------------------------------------5*~---------------------------------------------|
|-------------------------------------------------------------------------------------------------|
|Guitar 2
|
|-------------------------------------------------------------------------------------------------|
|-------------------------------------------------------------------------------------------------|
|-------------7-----------7-----------------7-----------------7-----------------------------------|
|-x--x--x--x--x-----x--x--x-----x--x--x--x--x-----x--x--x--x--x-----x--x--------------------------|
|-x--x--x--x--5-----x--x--5-----x--x--x--x--5-----x--x--x--x--5-----x--x--------------------------|
|-x--x--x--x--------x--x--------x--x--x--x--------x--x--x--x--------x--x--------------------------|
|Guitar 4

Chorus (2:35)
|-------------------------------------------------------------------------------------------------|
|-------------------------------------------------------------------------------------------------|
|-------------------------------------------------------------------------------------------------|
|-0-----0--0--0--0--0--0--0-----0--0--0--0--0--0--7-----7--7--7--7--7--7--7-----7--7--7--7--7--7--|
|-0-----0--0--0--0--0--0--0-----0--0--0--0--0--0--7-----7--7--7--7--7--7--7-----7--7--7--7--7--7--|
|-0-----0--0--0--0--0--0--0-----0--0--0--0--0--0--7-----7--7--7--7--7--7--7-----7--7--7--7--7--7--|
|Guitars 1 and 2
|
|-------------------------------------------------------------------------------------------------|
|-------------------------------------------------------------------------------------------------|
|-7-----7--7--7--7--7--7--7-----7--7--7--7--7--7--9-----9--9--9--9--9--9--9-----9--9--9--9--9--9--|
|-x-----x--x--x--x--x--x--x-----x--x--x--x--x--x--x-----x--x--x--x--x--x--x-----x--x--x--x--x--x--|
|-5-----5--5--5--5--5--5--5-----5--5--5--5--5--5--7-----7--7--7--7--7--7--7-----7--7--7--7--7--7--|
|-------------------------------------------------------------------------------------------------|
|Guitar 3

|-------------------------------------------------------------------------------------------------|
|-------------------------------------------------------------------------------------------------|
|-------------------------------------------------------------------------------------------------|
|-8-----8--8--8--8--8--8--8-----8--8--8--8--8--8--3-----3--3--3--3--3--3--7-----7--7--7--7--7--7--|
|-8-----8--8--8--8--8--8--8-----8--8--8--8--8--8--3-----3--3--3--3--3--3--7-----7--7--7--7--7--7--|
|-8-----8--8--8--8--8--8--8-----8--8--8--8--8--8--3-----3--3--3--3--3--3--7-----7--7--7--7--7--7--|
|Guitars 1 and 2
|
|-------------------------------------------------------------------------------------------------|
|-------------------------------------------------------------------------------------------------|
|-10----10-10-10-10-10-10-10----10-10-10-10-10-10-10----10-10-10-10-10-10-9-----9--9--9--9--9--9--|
|-x-----x--x--x--x--x--x--x-----x--x--x--x--x--x--x-----x--x--x--x--x--x--x-----x--x--x--x--x--x--|
|-8-----8--8--8--8--8--8--8-----8--8--8--8--8--8--8-----8--8--8--8--8--8--7-----7--7--7--7--7--7--|
|-------------------------------------------------------------------------------------------------|
|Guitar 3

|-------------------------------------------------------------------------------------------------|
|-------------------------------------------------------------------------------------------------|
|-------------------------------------------------------------------------------------------------|
|-0-----0--0--0--0--0--0--0-----0--0--0--0--0--0--7-----7--7--7--7--7--7--7-----7--7--7--7--7--7--|
|-0-----0--0--0--0--0--0--0-----0--0--0--0--0--0--7-----7--7--7--7--7--7--7-----7--7--7--7--7--7--|
|-0-----0--0--0--0--0--0--0-----0--0--0--0--0--0--7-----7--7--7--7--7--7--7-----7--7--7--7--7--7--|
|Guitars 1 and 2
|
|-------------------------------------------------------------------------------------------------|
|-------------------------------------------------------------------------------------------------|
|-7-----7--7--7--7--7--7--7-----7--7--7--7--7--7--9-----9--9--9--9--9--9--9-----9--9--9--9--9--9--|
|-x-----x--x--x--x--x--x--x-----x--x--x--x--x--x--x-----x--x--x--x--x--x--x-----x--x--x--x--x--x--|
|-5-----5--5--5--5--5--5--5-----5--5--5--5--5--5--7-----7--7--7--7--7--7--7-----7--7--7--7--7--7--|
|-------------------------------------------------------------------------------------------------|
|Guitar 3

|-------------------------------------------------------------------------------------------------|
|-------------------------------------------------------------------------------------------------|
|-------------------------------------------------------------------------------------------------|
|-8-----8--8--8--8--8--8--8-----8--8--8--8--8--8--3-----3--3--3--3--3--3--7--7--7--7--7--7--7--7--|
|-8-----8--8--8--8--8--8--8-----8--8--8--8--8--8--3-----3--3--3--3--3--3--7--7--7--7--7--7--7--7--|
|-8-----8--8--8--8--8--8--8-----8--8--8--8--8--8--3-----3--3--3--3--3--3--7--7--7--7--7--7--7--7--|
|Guitars 1 and 2
|
|-------------------------------------------------------------------------------------------------|
|-------------------------------------------------------------------------------------------------|
|-10----10-10-10-10-10-10-10----10-10-10-10-10-10-10----10-10-10-10-10-12-9--9--9--9--9--9--9--9--|
|-x-----x--x--x--x--x--x--x-----x--x--x--x--x--x--x-----x--x--x--x--x--x--x--x--x--x--x--x--x--x--|
|-8-----8--8--8--8--8--8--8-----8--8--8--8--8--8--8-----8--8--8--8--8--10-7--7--7--7--7--7--7--7--|
|-------------------------------------------------------------------------------------------------|
|Guitar 3                                                              (!)

Post-Chorus (2:54)
|---------------------------------------------------------------------------------------------------|
|---------------------------------------------------------------------------------------------------|
|---------------------------------------------------------------------------------------------------|
|---0--0--0--0--0-----0--0--0-----0--0--0--0--0--0--7--7--7--7--7--7--7--7--7--7--7--7--7--7--7--7--|
|---0--0--0--0--0-----0--0--0-----0--0--0--0--0--0--7--7--7--7--7--7--7--7--7--7--7--7--7--7--7--7--|
|---0--0--0--0--0-----0--0--0-----0--0--0--0--0--0--7--7--7--7--7--7--7--7--7--7--7--7--7--7--7--7--|
|PM .  .  .  .        .  .        .  .  .  .  .  .
|Guitars 1 and 2
|
|---------------------------------------------------------------------------------------------------|
|---------------------------------------------------------------------------------------------------|
|---------------7-----------7-----------7-/10-9-\7--5--5--5--5--5--5--5--5--9--9--9--9--9--9--9--9--|
|---x--x--x--x--x-----x--x--x-----x--x--x--x--x--x--x--x--x--x--x--x--x--x--x--x--x--x--x--x--x--x--|
|---x--x--x--x--5-----x--x--5-----x--x--5-/8--7-\5--3--3--3--3--3--3--3--3--7--7--7--7--7--7--7--7--|
|---x--x--x--x--------x--x--------x--x--------------------------------------------------------------|
|Guitar 3

|---------------------------------------------------------------------------------------------------|
|---------------------------------------------------------------------------------------------------|
|---------------------------------------------------------------------------------------------------|
|---8--8--8--8--8-----8--8--8-----8--8--8--8--8--8--3--3--3--3--3--3--3--3--7--7--7--7--7--7--7--7--|
|---8--8--8--8--8-----8--8--8-----8--8--8--8--8--8--3--3--3--3--3--3--3--3--7--7--7--7--7--7--7--7--|
|---8--8--8--8--8-----8--8--8-----8--8--8--8--8--8--3--3--3--3--3--3--3--3--7--7--7--7--7--7--7--7--|
|PM .  .  .  .        .  .
|Guitars 1 and 2
|
|---------------------------------------------------------------------------------------------------|
|---------------------------------------------------------------------------------------------------|
|---------------7-----------7-----------7-/10-9-\7--10-10-10-10-10-10-10-10-14-14-14-14-14-14-14-14-|
|---x--x--x--x--x-----x--x--x-----x--x--x--x--x--x--x--x--x--x--x--x--x--x--x--x--x--x--x--x--x--x--|
|---x--x--x--x--5-----x--x--5-----x--x--5-/8--7-\5--8--8--8--8--8--8--8--8--12-12-12-12-12-12-12-12-|
|---x--x--x--x--------x--x--------x--x--------------------------------------------------------------|
|Guitar 3

(Guitars 1 and 2)
|-------------------------|
|-------------------------|
|-------------------------|
|-5-h7--0--3-h5--0--2-h3--|
|-5-h7--0--3-h5--0--2-h3--|
|-5-h7--0--3-h5--0--2-h3--|
PM      .        .


Rap Verse Part 1 (3:04) - Guitars 1 and 2
|---------------------------------------------------------------------------------------------------|
|---------------------------------------------------------------------------------------------------|
|---------------------------------------------------------------------------------------------------|
|-0-------------------------------------------------------------------------------------------------|
|-0-------------------------------------------------------------------------------------------------|
|-0-------------------------------------------------------------------------------------------------|




Here comes my lead or the "Rap verse"


Guitar 1: [Distorted + Delay] plays the whole verse to the chorus




|----------------------------------------------------------------------------------------------------|
|----------------------------------------------------------------------------------------------------|
|----------------------------------------------------------------------------------------------------|
|-----5*--5*-------5*--5*-------5*--5*-------5*--5*--------------------------------------------------|
|-5~------------5~-----------7~-----------7~-----------8~--7--8--10--8--10--12~--12--13--12--10--12~-|
|----------------------------------------------------------------------------------------------------|


|---------------------------------------------------------------------------------------|
|---------------------------------------------------------------------------------------|
|---------------------------------------------------------------------------------------|
|-slide--/12~-12tr--12~--/19--17--15--17--14--15--14--10--15--14--15--17~--15--17--19~--|
|-slide---------------------------------------------------------------------------------|
|-slide---------------------------------------------------------------------------------|




Second guitar plays the clean bit in the first half and then plays the distorted part
in the second part of the verse.


clean

|----------------------------------------------------------------------|
|-------3~-------3~-------5~-------5~----------------------------------|
|----2--------2--------2--------2-------10----12----10--12--14----14~--|
|-0--------0--------0--------0-----------x-----x-----x---x---x-----x---|
|----------------------------------------8----10-----8--10--12----12~--|
|----------------------------------------------------------------------|




Rap Verse Part 2 (3:23) - Guitars 1, 2, and 3
|-------------------------------------------------------------------------------------------------|
|-------------------------------------------------------------------------------------------------|
|-------------------------------------------------------------------------------------------------|
|-0-----------------------------------------------------------------------------------------------|
|-0-----------------------------------------------------------------------------------------------|
|-0-----------------------------------------------------------------------------------------------|

|-------------------------------------------------------------------------------------------------|
|-------------------------------------------------------------------------------------------------|
|-------------------------------------------------------------------------------------------------|
|-------------------------------------------------------------------------------------x--x--x--x--|
|-------------------------------------------------------------------------------------x--x--x--x--|
|-------------------------------------------------------------------------------------x--x--x--x--|

|-------------------------------------------------------------------------------------------------|
|-------------------------------------------------------------------------------------------------|
|-------------------------------------------------------------------------------------------------|
|-0-----------------------------------------------------------------------------------------------|
|-0-----------------------------------------------------------------------------------------------|
|-0-----------------------------------------------------------------------------------------------|

(Guitar 1)
|-------------------------------------------------------------------------------------------------|
|-------------------------------------------------------------------------------------------------|
|-------------------------------------------------------------------------------------------------|
|------------------------------------------------(5*~)--------------------------------------------|
|----------------------------(fade in w/feedback)-5*~---------------------------------------------|
|-------------------------------------------------------------------------------------------------|

Chorus (3:43)
|-------------------------------------------------------------------------------------------------|
|-------------------------------------------------------------------------------------------------|
|-------------------------------------------------------------------------------------------------|
|-0-----0--0--0--0--0--0--0-----0--0--0--0--0--0--7-----7--7--7--7--7--7--7-----7--7--7--7--7--7--|
|-0-----0--0--0--0--0--0--0-----0--0--0--0--0--0--7-----7--7--7--7--7--7--7-----7--7--7--7--7--7--|
|-0-----0--0--0--0--0--0--0-----0--0--0--0--0--0--7-----7--7--7--7--7--7--7-----7--7--7--7--7--7--|
|Guitars 1 and 2
|
|-------------------------------------------------------------------------------------------------|
|-------------------------------------------------------------------------------------------------|
|-7-----7--7--7--7--7--7--7-----7--7--7--7--7--7--9-----9--9--9--9--9--9--9-----9--9--9--9--9--9--|
|-x-----x--x--x--x--x--x--x-----x--x--x--x--x--x--x-----x--x--x--x--x--x--x-----x--x--x--x--x--x--|
|-5-----5--5--5--5--5--5--5-----5--5--5--5--5--5--7-----7--7--7--7--7--7--7-----7--7--7--7--7--7--|
|-------------------------------------------------------------------------------------------------|
|Guitar 3

|-------------------------------------------------------------------------------------------------|
|-------------------------------------------------------------------------------------------------|
|-------------------------------------------------------------------------------------------------|
|-8-----8--8--8--8--8--8--8-----8--8--8--8--8--8--3-----3--3--3--3--3--3--7-----7--7--7--7--7--7--|
|-8-----8--8--8--8--8--8--8-----8--8--8--8--8--8--3-----3--3--3--3--3--3--7-----7--7--7--7--7--7--|
|-8-----8--8--8--8--8--8--8-----8--8--8--8--8--8--3-----3--3--3--3--3--3--7-----7--7--7--7--7--7--|
|Guitars 1 and 2
|
|-------------------------------------------------------------------------------------------------|
|-------------------------------------------------------------------------------------------------|
|-10----10-10-10-10-10-10-10----10-10-10-10-10-10-10----10-10-10-10-10-10-9-----9--9--9--9--9--9--|
|-x-----x--x--x--x--x--x--x-----x--x--x--x--x--x--x-----x--x--x--x--x--x--x-----x--x--x--x--x--x--|
|-8-----8--8--8--8--8--8--8-----8--8--8--8--8--8--8-----8--8--8--8--8--8--7-----7--7--7--7--7--7--|
|-------------------------------------------------------------------------------------------------|
|Guitar 3

|-------------------------------------------------------------------------------------------------|
|-------------------------------------------------------------------------------------------------|
|-------------------------------------------------------------------------------------------------|
|-0-----0--0--0--0--0--0--0-----0--0--0--0--0--0--7-----7--7--7--7--7--7--7-----7--7--7--7--7--7--|
|-0-----0--0--0--0--0--0--0-----0--0--0--0--0--0--7-----7--7--7--7--7--7--7-----7--7--7--7--7--7--|
|-0-----0--0--0--0--0--0--0-----0--0--0--0--0--0--7-----7--7--7--7--7--7--7-----7--7--7--7--7--7--|
|Guitars 1 and 2
|
|-------------------------------------------------------------------------------------------------|
|-------------------------------------------------------------------------------------------------|
|-7-----7--7--7--7--7--7--7-----7--7--7--7--7--7--9-----9--9--9--9--9--9--9-----9--9--9--9--9--9--|
|-x-----x--x--x--x--x--x--x-----x--x--x--x--x--x--x-----x--x--x--x--x--x--x-----x--x--x--x--x--x--|
|-5-----5--5--5--5--5--5--5-----5--5--5--5--5--5--7-----7--7--7--7--7--7--7-----7--7--7--7--7--7--|
|-------------------------------------------------------------------------------------------------|
|Guitar 3

|-------------------------------------------------------------------------------------------------|
|-------------------------------------------------------------------------------------------------|
|-------------------------------------------------------------------------------------------------|
|-8-----8--8--8--8--8--8--8-----8--8--8--8--8--8--3-----3--3--3--3--3--3--7--7--7--7--7--7--7--7--|
|-8-----8--8--8--8--8--8--8-----8--8--8--8--8--8--3-----3--3--3--3--3--3--7--7--7--7--7--7--7--7--|
|-8-----8--8--8--8--8--8--8-----8--8--8--8--8--8--3-----3--3--3--3--3--3--7--7--7--7--7--7--7--7--|
|Guitars 1 and 2
|
|-------------------------------------------------------------------------------------------------|
|-------------------------------------------------------------------------------------------------|
|-10----10-10-10-10-10-10-10----10-10-10-10-10-10-10----10-10-10-10-10-10-9--9--9--9--9--9--9--9--|
|-x-----x--x--x--x--x--x--x-----x--x--x--x--x--x--x-----x--x--x--x--x--x--x--x--x--x--x--x--x--x--|
|-8-----8--8--8--8--8--8--8-----8--8--8--8--8--8--8-----8--8--8--8--8--8--7--7--7--7--7--7--7--7--|
|-------------------------------------------------------------------------------------------------|
|Guitar 3

Post-Chorus (4:02)
|---------------------------------------------------------------------------------------------------|
|---------------------------------------------------------------------------------------------------|
|---------------------------------------------------------------------------------------------------|
|---0--0--0--0--0-----0--0--0-----0--0--0--0--0-----0--0--0--0--0-----0--0--5-h7--0--3-h5--0--2-h3--|
|---0--0--0--0--0-----0--0--0-----0--0--0--0--0-----0--0--0--0--0-----0--0--5-h7--0--3-h5--0--2-h3--|
|---0--0--0--0--0-----0--0--0-----0--0--0--0--0-----0--0--0--0--0-----0--0--5-h7--0--3-h5--0--2-h3--|
|PM .  .  .  .        .  .        .  .  .  .        .  .  .  .        .  .        .        .
|Guitars 1 and 2
|
|---------------------------------------------------------------------------------------------------|
|---------------------------------------------------------------------------------------------------|
|---------------7-----------7-----------------7-----------------7-----------------------------------|
|---0--0--0--0--x-----0--0--x-----0--0--0--0--x-----0--0--0--0--x-----0--0--5-h7--0--3-h5--0--2-h3--|
|---0--0--0--0--5-----0--0--5-----0--0--0--0--5-----0--0--0--0--5-----0--0--5-h7--0--3-h5--0--2-h3--|
|---0--0--0--0--------0--0--------0--0--0--0--------0--0--0--0--------0--0--5-h7--0--3-h5--0--2-h3--|
|PM .  .  .  .        .  .        .  .  .  .        .  .  .  .        .  .        .        .
|Guitar 3

|---------------------------------------------------------------------------------------------------|
|---------------------------------------------------------------------------------------------------|
|---------------------------------------------------------------------------------------------------|
|---0--0--0--0--0-----0--0--0-----0--0--0--0--0-----0--0--0--0--0-----0--0--5-h7--0--3-h5--0--2-h3--|
|---0--0--0--0--0-----0--0--0-----0--0--0--0--0-----0--0--0--0--0-----0--0--5-h7--0--3-h5--0--2-h3--|
|---0--0--0--0--0-----0--0--0-----0--0--0--0--0-----0--0--0--0--0-----0--0--5-h7--0--3-h5--0--2-h3--|
|PM .  .  .  .        .  .        .  .  .  .        .  .  .  .        .  .        .        .
|Guitars 1 and 2
|
|---------------------------------------------------------------------------------------------------|
|---------------------------------------------------------------------------------------------------|
|---------------7-----------7-----------------7-----------------7-----------------------------------|
|---0--0--0--0--x-----0--0--x-----0--0--0--0--x-----0--0--0--0--x-----0--0--5-h7--0--3-h5--0--2-h3--|
|---0--0--0--0--5-----0--0--5-----0--0--0--0--5-----0--0--0--0--5-----0--0--5-h7--0--3-h5--0--2-h3--|
|---0--0--0--0--------0--0--------0--0--0--0--------0--0--0--0--------0--0--5-h7--0--3-h5--0--2-h3--|
|PM .  .  .  .        .  .        .  .  .  .        .  .  .  .        .  .        .        .
|Guitar 3

(Guitars 1, 2, and 3)
|-------------------------------------------------------------------------------------------------|
|-------------------------------------------------------------------------------------------------|
|-------------------------------------------------------------------------------------------------|
|-0~----------------------------------------------------------------------------------------------|
|-0~--------------------------------------------------------------------(sustain into next line)--|
|-0~----------------------------------------------------------------------------------------------|

|-------------------------------------------------------------------------------------------------|
|-------------------------------------------------------------------------------------------------|
|-------------------------------------------------------------------------------------------------|
|-(0~)--------------------------------------------------------------------------------------------|
|-(0~)--------------------------------------------(gradual feedback)------------------------------|
|-(0~)--------------------------------------------------------------------------------------------|

Bridge (4:21) - Guitars 1 and 2
|-------------------------------------------------------------------------------------------------|
|-------------------------------------------------------------------------------------------------|
|-------------------------------------------------------------------------------------------------|
|-6-----------0-----------x--10-------x--13-------12-----(\)--0-----------x--3--------x--7--------|
|-6-----------0-----------x--10-------x--13-------12-----(\)--0-----------x--3--------x--7--------|
|-6-----------0-----------x--10-------x--13-------12-----(\)--0-----------x--3--------x--7--------|

|-------------------------------------------------------------------------------------------------|
|-------------------------------------------------------------------------------------------------|
|-------------------------------------------------------------------------------------------------|
|-6-----------0-----------x--10-------x--13-------12-----(\)--0-----------x--3--------x--7--------|
|-6-----------0-----------x--10-------x--13-------12-----(\)--0-----------x--3--------x--7--------|
|-6-----------0-----------x--10-------x--13-------12-----(\)--0-----------x--3--------x--7--------|

|-------------------------------------------------------------------------------------------------|
|-------------------------------------------------------------------------------------------------|
|-------------------------------------------------------------------------------------------------|
|-6-----------0-----------x--10-------x--13-------12-----(\)--0-----------x--3--------x--7--------|
|-6-----------0-----------x--10-------x--13-------12-----(\)--0-----------x--3--------x--7--------|
|-6-----------0-----------x--10-------x--13-------12-----(\)--0-----------x--3--------x--7--------|

|-------------------------------------------------------------------------------------------------|
|-------------------------------------------------------------------------------------------------|
|-------------------------------------------------------------------------------------------------|
|-6-----------0-----------x--10-------x--13-------12-----(\)--0-----------x--0--------x--0--------|
|-6-----------0-----------x--10-------x--13-------12-----(\)--0-----------x--0--------x--0--------|
|-6-----------0-----------x--10-------x--13-------12-----(\)--0-----------x--0--------x--0--------|

|-------------------------------------------------|
|-------------------------------------------------|
|-------------------------------------------------|
|-x--0--------x--0--------x--0--------x--0--------|
|-x--0--------x--0--------x--0--------x--0--------|
|-x--0--------x--0--------x--0--------x--0--------|

Breakdown (4:43) - Guitars 1 and 2
|--------------------------------------------------------------------------------------------------|
|--------------------------------------------------------------------------------------------------|
|--------------7-----------7-----------------7-----------------7-----------7-----------------7-----|
|--0--0--0--0--x-----0--0--x-----0--0--0--0--x-----0--0--0--0--x-----0--0--x-----0--0--0--0--x-----|
|--0--0--0--0--5-----0--0--5-----0--0--0--0--5-----0--0--0--0--5-----0--0--5-----0--0--0--0--5-----|
|--0--0--0--0--------0--0--------0--0--0--0--------0--0--0--0--------0--0--------0--0--0--0--------|
PM .  .  .  .        .  .        .  .  .  .        .  .  .  .        .  .        .  .  .  .


|---------------------------------------------------------------------------------------------------|
|---------------------------------------------------------------------------------------------------|
|---------------7-----------7-----------------7-----------------7-----------------------------------|
|---0--0--0--0--x-----0--0--x-----0--0--0--0--x-----0--0--0--0--x-----0--0--5-h7--0--3-h5--0--2-h3--|
|---0--0--0--0--5-----0--0--5-----0--0--0--0--5-----0--0--0--0--5-----0--0--5-h7--0--3-h5--0--2-h3--|
|---0--0--0--0--------0--0--------0--0--0--0--------0--0--0--0--------0--0--5-h7--0--3-h5--0--2-h3--|
|PM .  .  .  .        .  .        .  .  .  .        .  .  .  .        .  .        .        .
|Guitars 1 and 2
|
|---------------------------------------------------------------------------------------------------|
|---------------------------------------------------------------------------------------------------|
|---------------7-----------7-----------------7-----------------7-----------------------------------|
|---0--0--0--0--x-----0--0--x-----0--0--0--0--x-----0--0--0--0--x-----0--0--------------------------|
|---0--0--0--0--5-----0--0--5-----0--0--0--0--5-----0--0--0--0--5-----0--0--------------------------|
|---0--0--0--0--------0--0--------0--0--0--0--------0--0--0--0--------0--0--------------------------|
|PM .  .  .  .        .  .        .  .  .  .        .  .  .  .        .  .
|Guitar 3

Final Chorus (4:52)
|-------------------------------------------------------------------------------------------------|
|-------------------------------------------------------------------------------------------------|
|-------------------------------------------------------------------------------------------------|
|-0-----0--0--0--0--x--x--0-----0--0--0--0--x--x--7--7--7--7--7--7--7--7--7--7--7--7--7--7--7--7--|
|-0-----0--0--0--0--x--x--0-----0--0--0--0--x--x--7--7--7--7--7--7--7--7--7--7--7--7--7--7--7--7--|
|-0-----0--0--0--0--x--x--0-----0--0--0--0--x--x--7--7--7--7--7--7--7--7--7--7--7--7--7--7--7--7--|
|Guitars 1 and 2
|
|-------------------------------------------------------------------------------------------------|
|-------------------------------------------------------------------------------------------------|
|-7-----7--7--7--7--7--7--7-----7--7--7--7--7--7--9-----9--9--9--9--9--9--9-----9--9--9--9--9--9--|
|-x-----x--x--x--x--x--x--x-----x--x--x--x--x--x--x-----x--x--x--x--x--x--x-----x--x--x--x--x--x--|
|-5-----5--5--5--5--5--5--5-----5--5--5--5--5--5--7-----7--7--7--7--7--7--7-----7--7--7--7--7--7--|
|-------------------------------------------------------------------------------------------------|
|Guitar 3

|-------------------------------------------------------------------------------------------------|
|-------------------------------------------------------------------------------------------------|
|-------------------------------------------------------------------------------------------------|
|-8-----8--8--8--8--x--x--8-----8--8--8--8--8\----3--3--3--3--3--3--3--3--7--7--7--7--7--7--7--7--|
|-8-----8--8--8--8--x--x--8-----8--8--8--8--8\----3--3--3--3--3--3--3--3--7--7--7--7--7--7--7--7--|
|-8-----8--8--8--8--x--x--8-----8--8--8--8--8\----3--3--3--3--3--3--3--3--7--7--7--7--7--7--7--7--|
|Guitars 1 and 2
|
|-------------------------------------------------------------------------------------------------|
|-------------------------------------------------------------------------------------------------|
|-10----10-10-10-10-10-10-10----10-10-10-10-10-10-10----10-10-10-10-10-10-9-----9--9--9--9--9--9--|
|-x-----x--x--x--x--x--x--x-----x--x--x--x--x--x--x-----x--x--x--x--x--x--x-----x--x--x--x--x--x--|
|-8-----8--8--8--8--8--8--8-----8--8--8--8--8--8--8-----8--8--8--8--8--8--7-----7--7--7--7--7--7--|
|-------------------------------------------------------------------------------------------------|
|Guitar 3

|-------------------------------------------------------------------------------------------------|
|-------------------------------------------------------------------------------------------------|
|-------------------------------------------------------------------------------------------------|
|-0-----0--0--0--0--x--x--0-----0--0--0--0--x--x--7--7--7--7--7--7--7--7--7--7--7--7--7--7--7--7--|
|-0-----0--0--0--0--x--x--0-----0--0--0--0--x--x--7--7--7--7--7--7--7--7--7--7--7--7--7--7--7--7--|
|-0-----0--0--0--0--x--x--0-----0--0--0--0--x--x--7--7--7--7--7--7--7--7--7--7--7--7--7--7--7--7--|
|Guitars 1 and 2
|
|-------------------------------------------------------------------------------------------------|
|-------------------------------------------------------------------------------------------------|
|-7-----7--7--7--7--7--7--7-----7--7--7--7--7--7--9-----9--9--9--9--9--9--9-----9--9--9--9--9--9--|
|-x-----x--x--x--x--x--x--x-----x--x--x--x--x--x--x-----x--x--x--x--x--x--x-----x--x--x--x--x--x--|
|-5-----5--5--5--5--5--5--5-----5--5--5--5--5--5--7-----7--7--7--7--7--7--7-----7--7--7--7--7--7--|
|-------------------------------------------------------------------------------------------------|
|Guitar 3

|-------------------------------------------------------------------------------------------------|
|-------------------------------------------------------------------------------------------------|
|-------------------------------------------------------------------------------------------------|
|-8-----8--8--8--8--x--x--8-----8--8--8--8--8\----3--3--3--3--3--3--3--3--7--7--7--7--7--7--7--7--|
|-8-----8--8--8--8--x--x--8-----8--8--8--8--8\----3--3--3--3--3--3--3--3--7--7--7--7--7--7--7--7--|
|-8-----8--8--8--8--x--x--8-----8--8--8--8--8\----3--3--3--3--3--3--3--3--7--7--7--7--7--7--7--7--|
|Guitars 1 and 2
|
|-------------------------------------------------------------------------------------------------|
|-------------------------------------------------------------------------------------------------|
|-10----10-10-10-10-10-10-10----10-10-10-10-10-10-10----10-10-10-10-10-10-9-----9--9--9--9--9--9--|
|-x-----x--x--x--x--x--x--x-----x--x--x--x--x--x--x-----x--x--x--x--x--x--x-----x--x--x--x--x--x--|
|-8-----8--8--8--8--8--8--8-----8--8--8--8--8--8--8-----8--8--8--8--8--8--7-----7--7--7--7--7--7--|
|-------------------------------------------------------------------------------------------------|
|Guitar 3


Outro (5:12) - See ending for Guitar 5
|---------------------------------------------------------------------------------------------------|
|---------------------------------------------------------------------------------------------------|
|---------------------------------------------------------------------------------------------------|
|---0--0--0--0--0-----0--0--0-----0--0--0--0--0--0--7--7--7--7--7--7--7--7--7--7--7--7--7--7--7--7--|
|---0--0--0--0--0-----0--0--0-----0--0--0--0--0--0--7--7--7--7--7--7--7--7--7--7--7--7--7--7--7--7--|
|---0--0--0--0--0-----0--0--0-----0--0--0--0--0--0--7--7--7--7--7--7--7--7--7--7--7--7--7--7--7--7--|
|PM .  .  .  .        .  .        .  .  .  .  .  .
|Guitars 1 and 2
|
|---------------------------------------------------------------------------------------------------|
|---------------------------------------------------------------------------------------------------|
|---7-----7--7--7--7--7--7--7-----7--7--7--7--7--7--9-----9--9--9--9--9--9--9-----9--9--9--9--9--9--|
|---x-----x--x--x--x--x--x--x-----x--x--x--x--x--x--x-----x--x--x--x--x--x--x-----x--x--x--x--x--x--|
|---5-----5--5--5--5--5--5--5-----5--5--5--5--5--5--7-----7--7--7--7--7--7--7-----7--7--7--7--7--7--|
|---------------------------------------------------------------------------------------------------|
|Guitar 3

|---------------------------------------------------------------------------------------------------|
|---------------------------------------------------------------------------------------------------|
|---------------------------------------------------------------------------------------------------|
|---8--8--8--8--8-----8--8--8-----8--8--8--8--8--8--3--3--3--3--3--3--3--3--7--7--7--7--7--7--7--7--|
|---8--8--8--8--8-----8--8--8-----8--8--8--8--8--8--3--3--3--3--3--3--3--3--7--7--7--7--7--7--7--7--|
|---8--8--8--8--8-----8--8--8-----8--8--8--8--8--8--3--3--3--3--3--3--3--3--7--7--7--7--7--7--7--7--|
|PM .  .  .  .        .  .
|Guitars 1 and 2
|
|---------------------------------------------------------------------------------------------------|
|---------------------------------------------------------------------------------------------------|
|---10----10-10-10-10-10-10-10----10-10-10-10-10-10-10----10-10-10-10-10-10-9-----9--9--9--9--9--9--|
|---x-----x--x--x--x--x--x--x-----x--x--x--x--x--x--x-----x--x--x--x--x--x--x-----x--x--x--x--x--x--|
|---8-----8--8--8--8--8--8--8-----8--8--8--8--8--8--8-----8--8--8--8--8--8--7-----7--7--7--7--7--7--|
|---------------------------------------------------------------------------------------------------|
|Guitar 3

|---------------------------------------------------------------------------------------------------|
|---------------------------------------------------------------------------------------------------|
|---------------------------------------------------------------------------------------------------|
|---0--0--0--0--0-----0--0--0-----0--0--0--0--0--0--7--7--7--7--7--7--7--7--7--7--7--7--7--7--7--7--|
|---0--0--0--0--0-----0--0--0-----0--0--0--0--0--0--7--7--7--7--7--7--7--7--7--7--7--7--7--7--7--7--|
|---0--0--0--0--0-----0--0--0-----0--0--0--0--0--0--7--7--7--7--7--7--7--7--7--7--7--7--7--7--7--7--|
|PM .  .  .  .        .  .        .  .  .  .  .  .
|Guitars 1 and 2
|
|---------------------------------------------------------------------------------------------------|
|---------------------------------------------------------------------------------------------------|
|---7-----7--7--7--7--7--7--7-----7--7--7--7--7--7--9-----9--9--9--9--9--9--9-----9--9--9--9--9--9--|
|---x-----x--x--x--x--x--x--x-----x--x--x--x--x--x--x-----x--x--x--x--x--x--x-----x--x--x--x--x--x--|
|---5-----5--5--5--5--5--5--5-----5--5--5--5--5--5--7-----7--7--7--7--7--7--7-----7--7--7--7--7--7--|
|---------------------------------------------------------------------------------------------------|
|Guitar 3

|---------------------------------------------------------------------------------------------------|
|---------------------------------------------------------------------------------------------------|
|---------------------------------------------------------------------------------------------------|
|---8--8--8--8--8-----8--8--8-----8--8--8--8--8--8--3--3--3--3--3--3--3--3--7--7--7--7--7--7--7--7--|
|---8--8--8--8--8-----8--8--8-----8--8--8--8--8--8--3--3--3--3--3--3--3--3--7--7--7--7--7--7--7--7--|
|---8--8--8--8--8-----8--8--8-----8--8--8--8--8--8--3--3--3--3--3--3--3--3--7--7--7--7--7--7--7--7--|
|PM .  .  .  .        .  .
|Guitars 1 and 2
|
|---------------------------------------------------------------------------------------------------|
|---------------------------------------------------------------------------------------------------|
|---10----10-10-10-10-10-10-10----10-10-10-10-10-10-10----10-10-10-10-10-10-9-----9--9--9--9--9--9--|
|---x-----x--x--x--x--x--x--x-----x--x--x--x--x--x--x-----x--x--x--x--x--x--x-----x--x--x--x--x--x--|
|---8-----8--8--8--8--8--8--8-----8--8--8--8--8--8--8-----8--8--8--8--8--8--7-----7--7--7--7--7--7--|
|---------------------------------------------------------------------------------------------------|
|Guitar 3

|---------------------------------------------------------------------------------------------------|
|---------------------------------------------------------------------------------------------------|
|---------------------------------------------------------------------------------------------------|
|---0--0--0--0--0-----0--0--0-----0--0--0--0--0--0--7--7--7--7--7--7--7--7--7--7--7--7--7--7--7--7--|
|---0--0--0--0--0-----0--0--0-----0--0--0--0--0--0--7--7--7--7--7--7--7--7--7--7--7--7--7--7--7--7--|
|---0--0--0--0--0-----0--0--0-----0--0--0--0--0--0--7--7--7--7--7--7--7--7--7--7--7--7--7--7--7--7--|
|PM .  .  .  .        .  .        .  .  .  .  .  .
|Guitars 1 and 2
|
|---------------------------------------------------------------------------------------------------|
|---------------------------------------------------------------------------------------------------|
|---7-----7--7--7--7--7--7--7-----7--7--7--7--7--7--9-----9--9--9--9--9--9--9-----9--9--9--9--9--9--|
|---x-----x--x--x--x--x--x--x-----x--x--x--x--x--x--x-----x--x--x--x--x--x--x-----x--x--x--x--x--x--|
|---5-----5--5--5--5--5--5--5-----5--5--5--5--5--5--7-----7--7--7--7--7--7--7-----7--7--7--7--7--7--|
|---------------------------------------------------------------------------------------------------|
|Guitar 3

|---------------------------------------------------------------------------------------------------|
|---------------------------------------------------------------------------------------------------|
|---------------------------------------------------------------------------------------------------|
|---8--8--8--8--8-----8--8--8-----8--8--8--8--8--8--3--3--3--3--3--3--3--3--7--7--7--7--7--7--7--7--|
|---8--8--8--8--8-----8--8--8-----8--8--8--8--8--8--3--3--3--3--3--3--3--3--7--7--7--7--7--7--7--7--|
|---8--8--8--8--8-----8--8--8-----8--8--8--8--8--8--3--3--3--3--3--3--3--3--7--7--7--7--7--7--7--7--|
|PM .  .  .  .        .  .
|Guitars 1 and 2
|
|---------------------------------------------------------------------------------------------------|
|---------------------------------------------------------------------------------------------------|
|---10----10-10-10-10-10-10-10----10-10-10-10-10-10-10----10-10-10-10-10-10-9-----9--9--9--9--9--9--|
|---x-----x--x--x--x--x--x--x-----x--x--x--x--x--x--x-----x--x--x--x--x--x--x-----x--x--x--x--x--x--|
|---8-----8--8--8--8--8--8--8-----8--8--8--8--8--8--8-----8--8--8--8--8--8--7-----7--7--7--7--7--7--|
|---------------------------------------------------------------------------------------------------|
|Guitar 3

|---------------------------------------------------------------------------------------------------|
|---------------------------------------------------------------------------------------------------|
|---------------------------------------------------------------------------------------------------|
|---0--0--0--0--0-----0--0--0-----0--0--0--0--0--0--7--7--7--7--7--7--7--7--7--7--7--7--7--7--7--7--|
|---0--0--0--0--0-----0--0--0-----0--0--0--0--0--0--7--7--7--7--7--7--7--7--7--7--7--7--7--7--7--7--|
|---0--0--0--0--0-----0--0--0-----0--0--0--0--0--0--7--7--7--7--7--7--7--7--7--7--7--7--7--7--7--7--|
|PM .  .  .  .        .  .        .  .  .  .  .  .
|Guitars 1 and 2
|
|---------------------------------------------------------------------------------------------------|
|---------------------------------------------------------------------------------------------------|
|---7-----7--7--7--7--7--7--7-----7--7--7--7--7--7--9-----9--9--9--9--9--9--9-----9--9--9--9--9--9--|
|---x-----x--x--x--x--x--x--x-----x--x--x--x--x--x--x-----x--x--x--x--x--x--x-----x--x--x--x--x--x--|
|---5-----5--5--5--5--5--5--5-----5--5--5--5--5--5--7-----7--7--7--7--7--7--7-----7--7--7--7--7--7--|
|---------------------------------------------------------------------------------------------------|
|Guitar 3

|---------------------------------------------------------------------------------------------------|
|---------------------------------------------------------------------------------------------------|
|---------------------------------------------------------------------------------------------------|
|---8--8--8--8--8-----8--8--8-----8--8--8--8--8--8--3--3--3--3--3--3--3--3--7--7--7--7--7--7--7--7--|
|---8--8--8--8--8-----8--8--8-----8--8--8--8--8--8--3--3--3--3--3--3--3--3--7--7--7--7--7--7--7--7--|
|---8--8--8--8--8-----8--8--8-----8--8--8--8--8--8--3--3--3--3--3--3--3--3--7--7--7--7--7--7--7--7--|
|PM .  .  .  . 
|Guitars 1 and 2
|
|---------------------------------------------------------------------------------------------------|
|---------------------------------------------------------------------------------------------------|
|---10----10-10-10-10-10-10-10----10-10-10-10-10-10-10----10-10-10-10-10-10-9-----9--9--9--9--9--9--|
|---x-----x--x--x--x--x--x--x-----x--x--x--x--x--x--x-----x--x--x--x--x--x--x-----x--x--x--x--x--x--|
|---8-----8--8--8--8--8--8--8-----8--8--8--8--8--8--8-----8--8--8--8--8--8--7-----7--7--7--7--7--7--|
|---------------------------------------------------------------------------------------------------|
|Guitar 3

Ending (5:50) - See ending for Guitar 5
|-------------------------------------------------------------------------------------------------|
|-------------------------------------------------------------------------------------------------|
|-------------------------------------------------------------------------------------------------|
|-0~----------------------------------------------------------------------------------------------|
|-0~--------(let ring and gradually fade out, guitar completely fades out around 6:06)------------|
|-0~----------------------------------------------------------------------------------------------|
|Guitars 1 and 2
|
|-------------------------------------------------------------------------------------------------|
|-------------------------------------------------------------------------------------------------|
|-7~----------------------------------------------------------------------------------------------|
|-x---------(let ring and gradually fade out, guitar completely fades out around 6:06)------------|
|-5~----------------------------------------------------------------------------------------------|
|-------------------------------------------------------------------------------------------------|
|Guitar 3





The extended solo starts with the last chorus [distortet; delay]

For the solo I am using a crybaby Wah-Wah-pedal but you don't necessarly need 
one, it works pretty well without it.


I have splitted the solos into 4 parts to give you a better overview.



First part 


This one is pretty fast, I actually got inspired by the solo of "Afterlife" by 
Avenged Sevenfold (watch out for the palm muted notes).



|---------------------------------------------------------------------------------------------|
|---------------------------------------------------------------------------------------------|
|-------------------12h14p12------12h14--14v~--------------------12h14p12------12h14--s/17v~--|
|---------12h14h15------------15-----------------------12h14h15------------15-----------------|
|-----15-------------------------------------------15-----------------------------------------|
|-12-------------------------------------------12---------------------------------------------|
   .   .                                        .   .

|------------------------------------------------|
|------------------------------------------------|
|-------------------12h14p12------12h14-s/19v~---|
|---------12h14h15------------15-----------------|
|-----15-----------------------------------------|
|-12---------------------------------------------|
   .   .


|----------------------------------------------------------------------------|
|----------------------------------------------------------------------------|
|-17h19p17--15h17p15--14h15p14-----------------------------------------------|
|-------------------------------17--15--15h17p15--14--12--14h15p14--12--14~--|
|----------------------------------------------------------------------------|
|----------------------------------------------------------------------------|




Then you directly slide into the second part.



|-------------------------------------------------------------------------------------------|
|-------------------------------------------------------------------------------------------|
|-----------------------------------------------2-------------------------------------3-----|
|-5h7--3h5--2h3--3v~--/--5h7--3h5--2h3--2v~--2-----3--2v~----5h7--3h5--2h3p2p0--3--5-----5--|
|-------------------------------------------------------------------------------------------|
|-------------------------------------------------------------------------------------------|



directly into part 3

(this is essentially the solo of the studio version with some changes)

TR1= start tremolo picking

TR2= stop  tremolo picking


|---------------------------------------------------------------------------------|
|---------------------------------------------------------------------------------|
|-2v--5--10--9--7h9p7--5v~----7v----10----9----7----5v~----s/10----9----7----3v~--|
|---------------------------------------------------------------------------------|
|---------------------------------------------------------------------------------|
|---------------------------------------------------------------------------------|


|------------------------------------------------------------------------|
|------------------------------------------------------------------------|
|-s/10----9----7----2v~---s/6v~---(TR1)--7--10--7--10--9--7--(TR2)--5v~--|
|------------------------------------------------------------------------|
|------------------------------------------------------------------------|
|------------------------------------------------------------------------|



|---------------------------------------------------|
|-----10--------------------------------------------|
|-5*------10--9--7--3v~--3--3--3--3--2h3p2----------|
|-------------------------------------------3--0~---|
|---------------------------------------------------|
|---------------------------------------------------|




Transition tapping-part before the last part 

t= tap the string with the index finger of your right hand

h(here)= hammer the string with the index- or middle finger of your left hand 




|-------------------------------------------------------------------------------------|
|-------------------------------------------------------------------------------------|
|-t5p0--h2--t5p0--h2--t5p0--h2--t5p0--h2----t6p0--h2--t6p0--h2--t6p0--h2--t6p0--h2----|
|-------------------------------------------------------------------------------------|
|-------------------------------------------------------------------------------------|
|-------------------------------------------------------------------------------------|






Now comes the last part, which is basically all tapping:




|-----------------------------------------------------------------------------------------|
|-----------------------------------------------------------------------------------------|
|-----------------------------------------------------------------------------------------|
|-t12p0--h7--t12p0--h7--t12p0--h7--t12p0--h7--t12p0--h7--t12p0--h7--t12p0--h7--t12p0--h7--|
|-----------------------------------------------------------------------------------------|
|-----------------------------------------------------------------------------------------|


|-----------------------------------------------------------------------------------------|
|-----------------------------------------------------------------------------------------|
|-----------------------------------------------------------------------------------------|
|-t14p0--h7--t14p0--h7--t14p0--h7--t14p0--h7--t14p0--h7--t14p0--h7--t14p0--h7--t14p0--h7--|
|-----------------------------------------------------------------------------------------|
|-----------------------------------------------------------------------------------------|



|-----------------------------------------------------------------------------------------|
|-----------------------------------------------------------------------------------------|
|-----------------------------------------------------------------------------------------|
|-t12p0--h8--t12p0--h8--t12p0--h8--t12p0--h8--t12p0--h8--t12p0--h8--t12p0--h8--t12p0--h8--|
|-----------------------------------------------------------------------------------------|
|-----------------------------------------------------------------------------------------|



|------------------------------------------------------------------|
|------------------------------------------------------------------|
|------------------------------------------------------------------|
|-t10--h3h7--t10--h3h7--t10--h3----t11--h5h7--t11--h5h7--t11--h5~--|
|------------------------------------------------------------------|
|------------------------------------------------------------------|





|-----------------------------------------------------------------------------------------|
|-----------------------------------------------------------------------------------------|
|-----------------------------------------------------------------------------------------|
|-t12p0--h7--t12p0--h7--t12p0--h7--t12p0--h7--t12p0--h7--t12p0--h7--t12p0--h7--t12p0--h7--|
|-----------------------------------------------------------------------------------------|
|-----------------------------------------------------------------------------------------|




|-----------------------------------------------------------------------------------------|
|-----------------------------------------------------------------------------------------|
|-----------------------------------------------------------------------------------------|
|-t14p0--h7--t14p0--h7--t14p0--h7--t14p0--h7--t14p0--h7--t14p0--h7--t14p0--h7--t14p0--h7--|
|-----------------------------------------------------------------------------------------|
|-----------------------------------------------------------------------------------------|



|-----------------------------------------------------------------------------------------|
|-----------------------------------------------------------------------------------------|
|-----------------------------------------------------------------------------------------|
|-t12p0--h8--t12p0--h8--t12p0--h8--t12p0--h8--t12p0--h8--t12p0--h8--t12p0--h8--t12p0--h8--|
|-----------------------------------------------------------------------------------------|
|-----------------------------------------------------------------------------------------|


Here you have to increase the speed!


|---------------------------------------------------------------------------------------------------------|
|---------------------------------------------------------------------------------------------------------|
|---------------------------------------------------------------------------------------------------------|
|-t10p0--h3h7--t10p0--h3h7--t10p0--h3h7--t10p0--h3h7--t11p0--h5h7--t11p0--h5h7--t11p0--h5h7--t11p0--h5h7--|
|---------------------------------------------------------------------------------------------------------|
|---------------------------------------------------------------------------------------------------------|



|-------------------|
|-------------------|
|-------------------|
|--t12~-------------|       {FIN}
|-------------------|
|-------------------|







            
            
Suggest correction
Creating personal tab
Creating personal tab
You can edit any tab online and save it as your Personal.

You can edit, replace or remove any tab part or add personal notes – all changes will be seen only by you.

Personal tabs can be accessed anytime from any device, even offline.
Learn more »
Give kudos to tab author, rate the tab!
1 2 3 4 5
comments
print report bad tab
guest
You may want to rate the tab now too:
select rating
Wanna post a correction for this tab? Suggest correction