Oops, an error
Loading. Please wait.

A Place For My Head Bass Tab

version 2
version 2

Whole song

Interactive

21,115 views 39 this week
6 commentsread comments
1 2 3 4 5
accurate
x 24
add to favorites
launch autoscroll
font size
0
reset
guitar tuner
Tab Pro tools
  • play this tab
  • loop segment
  • change instrument
  • show fretboard
  • metronome
×
Best way to learn
"A Place For My Head"
Autoscroll
slow
fast
+/-
esc
set tempo
stop
Contributor
A Place for My Head by Linkin Park
Drop D Tuning (D, A, D, G)
No Bass until (0.14)

(Intro)
G:--------------------------|
D:--------------------------|
A:--------------------------|
D:--1-1---1-1---1-1---1-1---|

(Verse)
G:-----------------------------------|
D:-----------------------------------|  x4
A:-----------------------------------|
D:--1--1-1--1--4-4--6-6-6-6----------|

G:-----------------------------|
D:--8-9-8--6-------------------|  x4
A:6----------9-9--7-7-7--9-6---|
D:-----------------------------|

(Verse 2)
G:--------------------------|
D:--------------------------|
A:--------------------------|  x2
D:--1---4---1---4--\9-------|

G:-----------------------------|
D:--8-9-8--6-------------------|  x4
A:6----------9-9--7-7-7--9-6---|
D:-----------------------------|

(You try to take the best of me. . . )

G:-----------------------------|
D:--8-9-8--6-------------------|  x8
A:6----------9-9--7-7-7--9-6---|
D:-----------------------------|

(Bridge)
G:-----------------------------------|
D:-------------------------------4---|  x8
A:6-6--6-6-6-6--6-6-6--6-6-6-6-4-----|
D:-----------------------------------|

(Outro)
G:----------|
D:----------|
A:6--6------|
D:----------|

Thanks, please rate it after you learn it.
Tabbed by:
_TheBassist01_
comments
print report bad tab
6 comments total. Showing first comments.
+2 reply
LinkinPark90 wrote on April 15 2007, 10:19 pm

Ok first off I just wanna say I'm a very new bass player, I just started about a month ago...but I listened to the song, and in the first verse I swear it sounds like the D string is like this:

--1-1-1--1-1-1--1- rather than the --1--1-1--1-

I'm not sure if I'm hearing things or what, but when I play it throws me off, so I was just wondering if maybe I'm reading the tab wrong or if I'm hearing something wrong, if there's any way you could help, please let me know.

0 reply
Decdec wrote on November 8 2007, 03:59 pm

gd tab for notes think theres an odd fill or so missed but i carnt work em out

and like above some rythme missing
but its a tab its not ment to be 100%

good job

0 reply
Alex Naga wrote on February 10 2008, 03:25 pm

You say:

(Intro)
G:--------------------------|
D:--------------------------|
A:--------------------------|
D:--1-1---1-1---1-1---1-1---|

But I think that the bass plays the same than the guitar, like this:

(Intro)

G:---------------------------------|
D:---------------------------------|
A:------3334-3-1-------------------|
D:-1--1-----------4--4--2222-2-4-1-|


But It's just my opinion :S


However, good job, the tab is great!!

I want to post or [tab]
guest
You may want to rate the tab now too:
select rating
Please do not post tabs as comments. Select "correction" instead!