Oops, an error
Loading. Please wait.

A Place For My Head Bass Tab

version 3
version 3

Whole song

Interactive

727 views 3 this week
no commentswrite comment
1 2 3 4 5
2 more votes to show rating
add to favorites
launch autoscroll
font size
0
reset
guitar tuner
Autoscroll
slow
fast
+/-
esc
set tempo
stop
Help us to improve Ultimate-Guitar.com Take our survey!
×
Author
--------------------------------------------------------------------------------------
                                     A PLACE FOR MY HEAD - Linkin Park
--------------------------------------------------------------------------------------

Tabbed by: Maxi-King4
E-mail: 4maxikern4@googlemail.com

Band: Linkin Park
Song: A Place For My Head
Album: Hybrid Theory
Bassist: David Farrell 'Pheonix'

This is my first tab and so I hope you like it. It looks easy but it was a little challenge
for me to hear the exact number of times he beats a note but I think I got it almost right. 
Also the tuning is original Eb but I'm more comfortable to play it this way. 
So just try it out and enjoy ;)

Tuning: DADG

Intro only guitar
bass starts playing at 0:14

G|----------------------------------------------------------|
D|----------------------------------------------------------|
A|----------------------------------------------------------|
D|--1-1--------------1-1--------------1-1--------------1-1--|

Verse 

"I watch how the moon sits in the sky..."
G|-------------------------------------|
D|-------------------------------------|
A|-------------------------------------|
D|--1-1---1-1-1--1---4--4--4-4-6-6--6--| 6x


Refrain:

"I wanna be in another place..."
G|-------------------------------------|
D|-------------------------------------|
A|-------------------------------------|
D|--1--1-8-8-8-9-8-6-4--4-2-2-2-2-2-4--|   4x


Vers:

"...step on people like you do and..."
G|---------------------|
D|---------------------|
A|---------------------|
D|--4--4--4-4-6-6---6--|

G|--------------------------------------|
D|--------------------------------------|
A|--------------------------------------|
D|--1-1---1-1-1--1---4--4--4-4-6-6---6--|   3x

G|------------------------------------------------------------|
D|------------------------------------------------------------|
A|-----4h6p4-2~~-----------4h6p4-2~~/14-14-14-14-14-14-14-14--|
D|--1~~----------4h6p4-1~~------------------------------------|


Refrain:

"I wanna be in another place..."
G|-------------------------------------|
D|-------------------------------------|
A|-------------------------------------|
D|--1--1-8-8-8-9-8-6-4--4-2-2-2-2-2-4--|   4x


Bridge:

only live the bass plays
"You try to take the best of me go away..."
G|-------------------------------------------------------------|
D|-------------------------------------------------------------|
A|-------------------------------------------------------------|
D|--1-1---1-1-------1-1---1-1-------1-1---1-1-------1-1---1-1--|

G|-------------------------------------|
D|-------------------------------------|
A|-------------------------------------|
D|--1--1-8-8-8-9-8-6-4--4-2-2-2-2-2-4--|   4x


Refrain:

"I wanna be in another place..."
G|-------------------------------------|
D|-------------------------------------|
A|-------------------------------------|
D|--1--1-8-8-8-9-8-6-4--4-2-2-2-2-2-4--|   4x


Outro:

"Go...a-...way! I'm so sick of the tension.."
G|---------------------------------------|
D|---------------------------------------|
A|---------------------------------------|
D|--1-1---1-1-1-1---1-1-1---1-1-1-1---4--|   8x

G|-------|
D|-------|
A|-------|
D|--1-1--|


| /  slide up
| \  slide down
| h  hammer-on
| p  pull-off
| ~  vibrato
| +  harmonic
| x  Mute note
=====================================================================
Suggest correction
Give kudos to tab author, rate the tab!
1 2 3 4 5
comments
print report bad tab
guest
You may want to rate the tab now too:
select rating
Wanna post a correction for this tab? Suggest correction