Oops, an error
Loading. Please wait.

All For Nothing Bass Tab

version 1
version 1

Whole song

Interactive

706 views 3 this week
no commentswrite comment
1 2 3 4 5
please rate
add to favorites
launch autoscroll
font size
0
reset
guitar tuner
Tab Pro tools
  • play this tab
  • loop segment
  • change instrument
  • show fretboard
  • metronome
×
Best way to learn
"All For Nothing"
Autoscroll
slow
fast
+/-
esc
set tempo
stop
Contributor
Difficulty
Tuning
novice
D A D G B E
All For Nothing - Bass Tab

Tuning: Dropped D

Note: Bass begins at 0:06.

[Intro (0:06-0:18)]
[x3]
G|------------------------------------------------------------|
D|------------------------------------------------------------|
A|--7-7-7-7-10-10-10-10---------5-5-5-5-----------------------|
D|----------------------9-9-9-9-------------------------------|

[x1]
G|------------------------------------------------------------|
D|------------------------------------------------------------|
A|-9-9-9-9----------5-5-5-5-10-10-10-10-----------------------|
D|----------9-9-9-9---------------------2~--------------------|

[Verse I (0:19-0:47)]
[0:24-0:47]
[x2]
G|------------------------------------------------------------|
D|------------------------------------------------------------|
A|------------------------------------------------------------|
D|-2~----------5~------7~-------------------------------------|

[x1]
G|------------------------------------------------------------|
D|------------------------------------------------------------|
A|-3~---------------5~----------------------------------------|
D|------------------------------------------------------------|

G|------------------------------------------------------------|
D|------------------------------------------------------------|
A|-3~---------------5~----------------------------------------|
D|----------------------------7~------------------------------|

[Chorus (0:48-1:26)]
[0:48-1:13]
[x2]
G|------------------------------------------------------------|
D|------------------------------------------------------------|
A|-7-7-7-7-7-7-7-7-7-7-7-7-2-2-2-2-3-3-3-3-3-3-3-3-3-3-3-3-2--|
D|------------------------------------------------------------|


G|------------------------------------------------------------|
D|------------------------------------------------------------|
A|-2-2-2---------------------------------5-5-5-5-5-5-5-5-5-5--|
D|-------2-2-2-2-2-2-2-2-2-2-2-2-2-2-2-2----------------------|

G|------------------------------------------------------------|
D|------------------------------------------------------------|
A|-5-5-5-5-5-5------------------------------------------------|
D|------------------------------------------------------------|

[x1]
G|------------------------------------------------------------|
D|------------------------------------------------------------|
A|-5-5-5-5-5-5-5-5-5-5-5-5-5-5-5-5----------------------------|
D|------------------------------------------------------------|

[1:14-1:26]
[x3]
G|------------------------------------------------------------|
D|------------------------------------------------------------|
A|--7-7-7-7-10-10-10-10---------5-5-5-5-----------------------|
D|----------------------9-9-9-9-------------------------------|

[x1]
G|------------------------------------------------------------|
D|------------------------------------------------------------|
A|-9-9-9-9----------5-5-5-5-10-10-10-10-----------------------|
D|----------9-9-9-9-------------------------------------------|

[Verse II (1:27-1:52)]
[1:29-1:52]
[x2]
G|------------------------------------------------------------|
D|------------------------------------------------------------|
A|------------------------------------------------------------|
D|-2~----------5~------7~-------------------------------------|

[x2]
G|------------------------------------------------------------|
D|------------------------------------------------------------|
A|-3~---------------5~----------------------------------------|
D|------------------------------------------------------------|

[Chorus (1:54-2:19)]
[x2]
G|------------------------------------------------------------|
D|------------------------------------------------------------|
A|-7-7-7-7-7-7-7-7-7-7-7-7-2-2-2-2-3-3-3-3-3-3-3-3-3-3-3-3-2--|
D|------------------------------------------------------------|


G|------------------------------------------------------------|
D|------------------------------------------------------------|
A|-2-2-2---------------------------------5-5-5-5-5-5-5-5-5-5--|
D|-------2-2-2-2-2-2-2-2-2-2-2-2-2-2-2-2----------------------|

G|------------------------------------------------------------|
D|------------------------------------------------------------|
A|-5-5-5-5-5-5------------------------------------------------|
D|------------------------------------------------------------|

[x1]
G|------------------------------------------------------------|
D|------------------------------------------------------------|
A|-5-5-5-5-5-5-5-5-5-5-5-5-5-5-5-5----------------------------|
D|------------------------------------------------------------|

[Solo/Interlude (2:20-2:48)]
[x2]
G|------------------------------------------------------------|
D|------------------------------------------------------------|
A|-7-7-7-7-7-7-7-7-7-7-7-7-2-2-2-2-3-3-3-3-3-3-3-3-3-3-3-3-2--|
D|------------------------------------------------------------|


G|------------------------------------------------------------|
D|------------------------------------------------------------|
A|-2-2-2---------------------------------5-5-5-5-5-5-5-5-5-5--|
D|-------2-2-2-2-2-2-2-2-2-2-2-2-2-2-2-2----------------------|

G|------------------------------------------------------------|
D|------------------------------------------------------------|
A|-5-5-5-5-5-5------------------------------------------------|
D|------------------------------------------------------------|

[x1]
G|------------------------------------------------------------|
D|------------------------------------------------------------|
A|-5-5-5-5-5-5-5-5-5-5-5-5-5-5-5-5----------------------------|
D|------------------------------------------------------------|

[Chorus (2:49-3:08)]

[No bass from 2:50-2:53]

[2:54-3:08]
[x3]
G|------------------------------------------------------------|
D|------------------------------------------------------------|
A|--7-7-7-7-10-10-10-10---------5-5-5-5-----------------------|
D|----------------------9-9-9-9-------------------------------|

[x2]
G|------------------------------------------------------------|
D|------------------------------------------------------------|
A|-9-9-9-9----------5-5-5-5-10-10-10-10-----------------------|
D|----------9-9-9-9-------------------------------------------|

If there's any confusion, questions, or advice on how to 
improve it, please post a comment. Have fun playing, and 
please rate! -Rarrlow
comments
We did not receive enough feedback on this tab! Please rate:
print report bad tab
1 2 3 4 5
I want to post or [tab]
guest
You may want to rate the tab now too:
select rating
Please do not post tabs as comments. Select "correction" instead!