Oops, an error
Loading. Please wait.

Blackbirds Bass Tab

version 1
version 1

Whole song

Interactive

2,103 views 6 this week
1 commentread comment
1 2 3 4 5
2 more votes to show rating
add to favorites
launch autoscroll
font size
0
reset
guitar tuner
Autoscroll
slow
fast
+/-
esc
set tempo
stop
Help us to improve Ultimate-Guitar.com Take our survey!
×
Difficulty
novice
very easy to play. Just listen to the song. 

vers 
G|-------------------------------|
D|-------------------------------|
A|5-------5-------5------5-------|
E|------------1-3------------1-3-|

chorus
G|----------------------------------------------------------|
D|----------------------------------------------------------|
A|0-------0-------5-------0-------5-------0-------3---0-3-5-|
E|--3-1-----3-1-------1-------1-3-----1-------1-3-----------|

bridge
G|---------------------------------|
D|------------3-5-------------3-5--|
A|5---5---5-------5---5---5-------5|
E|---------------------------------|

Suggest correction
Give kudos to tab author, rate the tab!
1 2 3 4 5
comments
print report bad tab
1 comment total.
0 reply
CompleteR 10 Jun 16, 2010 04:29 PM

Hey, thx a lot for the tab. I have made some changes based on your tab(i can't figure out the last part. If u read this please reply) :

(0:27)
G|-------------------------------|
D|-------------------------------|
A|5-------5-------5------5-------| x1
E|------------1-3------------1-3-|

(0:46)
prechorus chorus(With blackbirds...)
G|-----------------|-----------------------------------------|
D|-----------------|-----------------------------------------|
A|0-------0--------|-----5---------0---------5-------0-------| x1
E|--3-1--------3---|-1--------1-------1--3------1-------1--3-|

(1:17)
G|-------------------------------|
D|-------------------------------|
A|5-------5-------5------5-------| x1
E|------------1-3------------1-3-|

G|------------------|
D|------------------|
A|5-------5---------| x1
E|------------1-3---|

(1:45)
prechorus chorus(With blackbirds...)
G|-----------------|-----------------------------------------|
D|-----------------|-----------------------------------------|
A|0-------0--------|-----5---------0---------5-------0-------| x1
E|--3-1--------3---|-1--------1-------1--3------1-------1--3-|

(2:17)
bridge
G|---------------------------------|
D|------------3-5-------------3-5--|
A|5---5---5-------5---5---5--------| x1
E|---------------------------------|

(2:35)
chorus(Blackbirds...)
G|-----------------------------------------|
D|-----------------------------------------|
A|-----5---------0---------5-------0-------| x1
E|-1--------1-------1--3------1-------1--3-|

(2:53) (I'm getting back...)

............

guest
You may want to rate the tab now too:
select rating
Wanna post a correction for this tab? Suggest correction