Oops, an error
Loading. Please wait.
We have an official Bleed It Out tab made by UG professional guitarists. Check out the tab »
×
85,837 views 438 this week
28 commentsread comments
1 2 3 4 5
x 87
add to favorites
×
Save as Personal and add changes to this tab that will be seen only by you. Learn more ›
×
You can save this tab as Personal to edit and correct it or add notes. All changes will be seen only by you. Learn more »
save as personal
new!
launch autoscroll
font size
0
reset
guitar tuner
backing track
0:00
0:00
Autoscroll
slow
fast
+/-
esc
set tempo
stop
Author
Difficulty
Tuning
novice
D A D G
Artist: Linkin Park
Song: Bleed it out
Tabbed By : slimk
e-mail: kenderickcraig@yahoo.com
Album: Minutes to Midnight
Tuning: Drop D (DADG)

[Verse 1]
(0:23)
G|----------------------------------------------------------------|
D|------------------------------------------------4-4-4-4-4-4-4-4-|
A|5-5-5-5-5-5-5-5-7-7-7-7-7-7-7-7---------------------------------|
D|--------------------------------4-4-4-4-4-4-4-4-----------------|

G|----------------------------------------------------------------|
D|----------------------------------------------------------------|
A|5-5-5-5-5-5-5-5-7-7-7-7-7-7-7-7-2-2-2-2-2-2-2-2-7-7-7-7-4-4-4-4-|
D|----------------------------------------------------------------|

Chorus:(0:38)
G|----------------------------------------------------------------|
D|----------------------------------------------------------------|
A|----------------0-0-0-0-4-4-4-4-2-2-2-2-2-2-2-2-7-7-7-7-4-4-4-4-|
D|4-4-4-4-4-4-4-4-------------------------------------------------|

G|-------------------------------------------------------------------|
D|-------------------------------------------------------------------|
A|----------------0-0-0-0-4-4-4-4-2-2-2-2-2-2-2-2-7-7-7-7-4-4-4-4----|
D|4-4-4-4-4-4-4-4-------------------------------------------------4\-|

[Verse 2]
(1:05)
G|----------------------------------------------------------------|
D|------------------------------------------------4-4-4-4-4-4-4-4-|
A|5-5-5-5-5-5-5-5-7-7-7-7-7-7-7-7---------------------------------|
D|--------------------------------4-4-4-4-4-4-4-4-----------------|

G|----------------------------------------------------------------|
D|----------------------------------------------------------------|
A|5-5-5-5-5-5-5-5-7-7-7-7-7-7-7-7-2-2-2-2-2-2-2-2-7-7-7-7-4-4-4-4-|
D|----------------------------------------------------------------|

[Chorus]
(1:19) 
G|----------------------------------------------------------------|
D|----------------------------------------------------------------|
A|----------------0-0-0-0-4-4-4-4-2-2-2-2-2-2-2-2-7-7-7-7-4-4-4-4-|
D|4-4-4-4-4-4-4-4-------------------------------------------------|

G|----------------------------------------------------------------|
D|----------------------------------------------------------------|
A|----------------0-0-0-0-4-4-4-4-2-2-2-2-2-2-2-2-7-7-7-7-4-4-4-4-|
D|4-4-4-4-4-4-4-4-------------------------------------------------|

[Bridge]
(1:33)
G|----------------------------------------------------------------|
D|----------------------------------------------------------------|
A|----------------------------------------------------------------|
D|0-0-0-0-0-0-0-0-0-0-0-0-0-0-0-0-2-2-2-2-2-2-2-2-2-2-2-2-2-2-2-2-|

G|----------------------------------------------------------------|
D|----------------------------------------------------------------|
A|----------------------------------------------------------------|
D|0-0-0-0-0-0-0-0-0-0-0-0-0-0-0-0-2-2-2-2-2-2-2-2-4-4-4-2-2-2-2-2-|

G|--------------------------------|
D|--------------------------------|
A|--------------------------------|
D|0-0-0-0-----0-0-2-2-2-2-----2-2-|

[Chorus]
(2:10)
G|----------------------------------------------------------------|
D|----------------------------------------------------------------|
A|----------------0-0-0-0-4-4-4-4-2-2-2-2-2-2-2-2-7-7-7-7-4-4-4-4-|
D|4-4-4-4-4-4-4-4-------------------------------------------------|

G|----------------------------------------------------------------|
D|----------------------------------------------------------------|
A|----------------0-0-0-0-4-4-4-4-2-2-2-2-2-2-2-2-7-7-7-7-4-4-4-4-|
D|4-4-4-4-4-4-4-4-------------------------------------------------|

G|----------------------------------------------------------------|
D|----------------------------------------------------------------|
A|----------------0-0-0-0-4-4-4-4-2-2-2-2-2-2-2-2-7-7-7-7-4-4-4-4-|
D|4-4-4-4-4-4-4-4-------------------------------------------------|

G|----------------------------------------------------------------|
D|----------------------------------------------------------------|
A|----------------0-0-0-0-4-4-4-4-2-2-2-2-2-2-2-2-7-7-7-7-4-4-4-4-|
D|4-4-4-4-4-4-4-4-------------------------------------------------|

************************************

| \  Slide down

************************************
Suggest correction
comments
print report bad tab
28 comments total. Showing first comments.
+4 reply
h3llang3l 40 May 30, 2007 05:39 AM

bent is wrong, very good tab. 5* from me.

0 reply
devin_g94 70 May 30, 2007 05:33 PM

I agree, favorite song from the album I like to hear mike rapping more. umm, great tab although a bass isn't absolutly neccessary 'cept the chorus but good job

+2 reply
Bass Pants 1,920 Jun 14, 2007 08:14 PM

good tab 5*

guest
You may want to rate the tab now too:
select rating
Wanna post a correction for this tab? Suggest correction