Oops, an error
Loading. Please wait.

Bleed It Out Tab

version 1
151,723 views 99 this week
12 commentsread comments
1 2 3 4 5
x 25
add to favorites
launch autoscroll
font size
0
reset
how to read this tab
guitar tuner
Autoscroll
slow
fast
+/-
esc
set tempo
stop
Help us to improve Ultimate-Guitar.com Take our survey!
×
Author
Difficulty
Tuning
intermediate
D A D G B E
Linkin Park
Bleed It Out
Minutes To Midnight (2007)
Tabbed by: Left-Behind

Tuning: Drop D

This song is fairly easy. It is mostly just 2 basic riffs.
Should not take long to learn.

0:03
|----9--9--9---9--9--9---9--9---------------------------|    
|----7--7--7---7--7--7---7--7---------------------------|          
|-------------------------------------------------------| x2
|-------------------------------------------------------|
|-------------------------------------------------------|
|-------------------------------------------------------|


0:06
|----7--7--7---7--7--7---7--7---------------------------|
|----7--7--7---7--7--7---7--7---------------------------|
|-------------------------------------------------------| x2     
|-------------------------------------------------------|      
|-------------------------------------------------------|
|-------------------------------------------------------|


0:08
|----7-7-7-7---7--7--7--7-------------------------------|
|----9-9-9-9---10-10-10-10------------------------------|
|-------------------------------------------------------|
|-------------------------------------------------------|
|-------------------------------------------------------|
|-------------------------------------------------------|
           
                         
       first 3 bars, reapeat 3 times      


|-----9-9-9--9-9-9--9-9---------------------------------|
|-----7-7-7--7-7-7--7-7---------------------------------|
|-------------------------------------------------------| x2
|-------------------------------------------------------|
|-------------------------------------------------------|
|-------------------------------------------------------|


|----7-7-7--7-7-7--7-7----------------------------------|
|----7-7-7--7-7-7--7-7----------------------------------|
|-------------------------------------------------------|
|-------------------------------------------------------|
|-------------------------------------------------------|
|-------------------------------------------------------|


|----9-9-9--9-9-9--9-9----------------------------------|
|----7-7-7--7-7-7--7-7----------------------------------|
|-------------------------------------------------------| x4
|-------------------------------------------------------|
|-------------------------------------------------------|
|-------------------------------------------------------|


|---7-7-7--7-7-7--7-7-----------------------------------|
|---7-7-7--7-7-7--7-7-----------------------------------|
|-------------------------------------------------------| x2
|-------------------------------------------------------|
|-------------------------------------------------------|
|-------------------------------------------------------|


|---7-7-7-7--7--7--7--7---------------------------------|
|---9-9-9-9--10-10-10-10--------------------------------|
|-------------------------------------------------------|
|-------------------------------------------------------|
|-------------------------------------------------------|
|-------------------------------------------------------|


repeat ver 1

|-------------------------------------------------------|
|-------------------------------------------------------|
|--11--13---14---18---16---14---13----------------------| x2
|--x---x----x----x----x----x----x-----------------------|
|--9---11---12---16---14---12---11----------------------|
|-------------------------------------------------------|

not right amount of times to hit strings


ENJOY
(Any questions? Send to.....Left-behind-133@hotmail.com



************************************

| x  Dead note

************************************
Suggest correction
comments
print report bad tab
12 comments total. Showing first comments.
0 reply
the57kid 10 Jun 16, 2007 07:08 PM

Good tab man, this song is awesome and now i can play it thanks to you. I like it way more than the others.Peace out man.

0 reply
prophetsfan 20 Jun 21, 2007 03:33 PM

seemed out, i liked the intro one alot better, when mike played this live he played it the way the intro guy had tabbed it

0 reply
Thom Yorke 70 Jun 26, 2007 12:42 PM

It's good. Why have you put it as intermediate, surely a novice could play this!

guest
You may want to rate the tab now too:
select rating
Wanna post a correction for this tab? Suggest correction