Oops, an error
Loading. Please wait.

Bleed It Out Tab

version 2
143,233 views 228 this week
11 commentsread comments
1 2 3 4 5
x 31
add to favorites
launch autoscroll
font size
0
reset
how to read this tab
guitar tuner
Autoscroll
slow
fast
+/-
esc
set tempo
stop
Help us to improve Ultimate-Guitar.com Take our survey!
×
Difficulty
Tuning
novice
D A D G B E
This is most of what is played in this song. Its the intro, the verse, and the chorus.
gonna call it the Main Riff.


[Main Riff]

E|-9----9----9--9----9---9---7----7----7--7777-5555-----|
B|----7--7-7--7--7-7--7-7--7--7-7--7-7--7---------------|
G|------------------------------------------------------|
D|------------------------------------------------------|  until the pre-chorus
A|------------------------------------------------------|
D|------------------------------------------------------|


[Pre-Chorus]

E|-------------------9----9----9--9----9----9----------------------7----7----7--7777-5555-|
B|-77777777-99999999--7-7--7-7--7--7-7--7-7--7--77777777-99999999---7-7--7-7--7-----------|
G|----------------------------------------------------------------------------------------|
D|----------------------------------------------------------------------------------------|
A|----------------------------------------------------------------------------------------|
D|----------------------------------------------------------------------------------------|


[Chorus]

(Main Riff x2)


E|-9----9----9--9----9---9---7----7----7--7777-5555-----|
B|----7--7-7--7--7-7--7-7--7--7-7--7-7--7---------------|
G|------------------------------------------------------|
D|------------------------------------------------------| x2
A|------------------------------------------------------|
D|------------------------------------------------------|

Then there's the Chester shouty bit:

E|--------------------------------|          E|-----------------------|
B|--------------------------------|          B|-----------------------|
G|-6-6-6-6-6-6-6-6-4-4-4-4-4-4-4-4|          G|-----------------------|
D|-6-6-6-6-6-6-6-6-4-4-4-4-4-4-4-4|  x2 then D|-00-00-0--22-22-2--(4)-|
A|-4-4-4-4-4-4-4-4-2-2-2-2-2-2-2-2|          A|-00-00-0--22-22-2--(4)-|
D|--------------------------------|          D|-00-00-0--22-22-2--(4)-|


[Main Riff]

E|-9----9----9--9----9---9---7----7----7--7777-5555-----|
B|----7--7-7--7--7-7--7-7--7--7-7--7-7--7---------------|
G|------------------------------------------------------|
D|------------------------------------------------------|   
A|------------------------------------------------------|
D|------------------------------------------------------|

At the end there's a sort of solo-ish bit which i think goes like this:

E|-------------------------------------------|
B|----------------2222-----------------------|
G|------1111-2222------4444-1111-2222-1111---|
D|-4444------------------------------------4-|
A|-------------------------------------------|
D|-------------------------------------------|

Let the last note ring, and you can bend it or eat it or whatever you want really, but
the last note. I think they bend it.



************************************

| (n)  Ghost note

************************************
Suggest correction
comments
print report bad tab
11 comments total. Showing first comments. show 1 bad comment
+4 reply
chris_red 175 Jun 06, 2007 05:52 AM

the solo-ish thingy at the end is made up of octaves, i recommend you check out the guitar pro version to compare. Intro and pre-chorus seem good though

+4 reply
manthing94 10 Jan 10, 2008 12:57 PM

i like it

guest
You may want to rate the tab now too:
select rating
Wanna post a correction for this tab? Suggest correction