Oops, an error
Loading. Please wait.

Bleed It Out Tab

version 5
5,234 views 1 this week
no commentswrite comment
1 2 3 4 5
please rate
add to favorites
launch autoscroll
font size
0
reset
how to read this tab
guitar tuner
Tab Pro tools
  • play this tab
  • loop segment
  • change instrument
  • show fretboard
  • metronome
×
Best way to learn
"Bleed It Out"
Autoscroll
slow
fast
+/-
esc
set tempo
stop
-------------------------------------------------------------------------------
                             "BLEED IT OUT" - Linkin Park
-------------------------------------------------------------------------------
Tabbed by: falco.1993
Email: phoenix.1993@ymail.com

Tuning: Drop D

Q=139

Just updated on 01/22/11. Changed the main riff a little, I think it sounds better now.

Intro/Verse:

e|-9---9-9-----9---9-9-9---9---9-9-7-----7---7-7---7-7-7-7-7--7--7--7--|
B|---7-----7-7---7-------7---7-------7-7---7-----7---------10-10-10-10-|
G|---------------------------------------------------------------------|
D|---------------------------------------------------------------------|
A|---------------------------------------------------------------------|
D|---------------------------------------------------------------------| x3

e|---------------------------------9---9-9-----9---9-9-9---9---9-9-|
B|-7-7-7-7---------9-9-9-9-----------7-----7-7---7-------7---7-----|
G|---------7-7-7-7---------9-9-9-9---------------------------------|
D|-----------------------------------------------------------------|
A|-----------------------------------------------------------------|
D|-----------------------------------------------------------------|

e|---------------------------------7-----7---7-7---7-7-7-7-7--7--7--7--|
B|-7-7-7-7---------9-9-9-9-----------7-7---7-----7---------10-10-10-10-|
G|---------7-7-7-7---------9-9-9-9-------------------------------------|
D|---------------------------------------------------------------------|
A|---------------------------------------------------------------------|
D|---------------------------------------------------------------------|

Chorus:

e|-9---9-9-----9---9-9-9---9---9-9-7-----7---7-7---7-7-7-7-7--7--7--7--|
B|---7-----7-7---7-------7---7-------7-7---7-----7---------10-10-10-10-|
G|---------------------------------------------------------------------|
D|---------------------------------------------------------------------|
A|---------------------------------------------------------------------|
D|---------------------------------------------------------------------| x2

Verse:

e|-9---9-9-----9---9-9-9---9---9-9-7-----7---7-7---7-7-7-7-7--7--7--7--|
B|---7-----7-7---7-------7---7-------7-7---7-----7---------10-10-10-10-|
G|---------------------------------------------------------------------|
D|---------------------------------------------------------------------|
A|---------------------------------------------------------------------|
D|---------------------------------------------------------------------| x2

e|---------------------------------9---9-9-----9---9-9-9---9---9-9-|
B|-7-7-7-7---------9-9-9-9-----------7-----7-7---7-------7---7-----|
G|---------7-7-7-7---------9-9-9-9---------------------------------|
D|-----------------------------------------------------------------|
A|-----------------------------------------------------------------|
D|-----------------------------------------------------------------|

e|---------------------------------7-----7---7-7---7-7-7-7-7--7--7--7--|
B|-7-7-7-7---------9-9-9-9-----------7-7---7-----7---------10-10-10-10-|
G|---------7-7-7-7---------9-9-9-9-------------------------------------|
D|---------------------------------------------------------------------|
A|---------------------------------------------------------------------|
D|---------------------------------------------------------------------|

Chorus:

e|-9---9-9-----9---9-9-9---9---9-9-7-----7---7-7---7-7-7-7-7--7--7--7--|
B|---7-----7-7---7-------7---7-------7-7---7-----7---------10-10-10-10-|
G|---------------------------------------------------------------------|
D|---------------------------------------------------------------------|
A|---------------------------------------------------------------------|
D|---------------------------------------------------------------------| x2

Breakdown:

-Lead:
e|-9---9-9-----9---9-9-9---9---9-9-7-----7---7-7---7-----7---7-7---|
B|---7-----7-7---7-------7---7-------7-7---7-----7---7-7---7-----7-|
G|-----------------------------------------------------------------|
D|-----------------------------------------------------------------|
A|-----------------------------------------------------------------|
D|-----------------------------------------------------------------| x2

-Rhythm:
e|-----------------------------------------------------------------|
B|-----------------------------------------------------------------|
G|-----------------------------------------------------------------|
D|-0-0-0-0-0-0-0-0-0-0-0-0-0-0-0-0-2-2-2-2-2-2-2-2-2-2-2-2-2-2-2-2-|
A|-0-0-0-0-0-0-0-0-0-0-0-0-0-0-0-0-2-2-2-2-2-2-2-2-2-2-2-2-2-2-2-2-|
D|-0-0-0-0-0-0-0-0-0-0-0-0-0-0-0-0-2-2-2-2-2-2-2-2-2-2-2-2-2-2-2-2-| x2

-Lead:
e|---------------------------|
B|-7-7-7-7--7-7-9-9-9-9--9-9-|
G|---------------------------|
D|---------------------------|
A|---------------------------|
D|---------------------------|

-Rhythm:
e|---------------------------|
B|---------------------------|
G|---------------------------|
D|-0-0-0-0--0-0-2-2-2-2--2-2-|
A|-0-0-0-0--0-0-2-2-2-2--2-2-|
D|-0-0-0-0--0-0-2-2-2-2--2-2-|

Chorus/outro:

e|-9---9-9-----9---9-9-9---9---9-9-7-----7---7-7---7-7-7-7-7--7--7--7--|
B|---7-----7-7---7-------7---7-------7-7---7-----7---------10-10-10-10-|
G|---------------------------------------------------------------------|
D|---------------------------------------------------------------------|
A|---------------------------------------------------------------------|
D|---------------------------------------------------------------------| 

e|-9---9-9-----9---9-9-9---9---9-9-7-----7---7-7---7-7-7-7-7--7--7--7--|
B|---7-----7-7---7-------7---7-------7-7---7-----7---------10-10-10-10-|
G|---------------------------------------------------------------------|
D|---------------------------------------------------------------------|
A|---------------------------------------------------------------------|
D|---------------------------------------------------------------------|

e|-9---9-9-----9---9-9-9---9---9-9-7-----7---7-7---7-7-7-7-7--7--7--7--|
B|---7-----7-7---7-------7---7-------7-7---7-----7---------10-10-10-10-|
G|---------------------------------------------------------------------|
D|---------------------------------------------------------------------|
A|---------------------------------------------------------------------|
D|---------------------------------------------------------------------|

e|-9---9-9-----9---9-9-9---9---9-9-7-----7---7-7---7-7-7-7-7--7--7--7--|
B|---7-----7-7---7-------7---7-------7-7---7-----7---------10-10-10-10-|
G|---------------------------------------------------------------------|
D|---------------------------------------------------------------------|
A|---------------------------------------------------------------------|
D|---------------------------------------------------------------------|

e|-9---9-9-----9---9-9-9---9---9-9-7-----7---7-7---7-7-7-7-7--7--7--7--|
B|---7-----7-7---7-------7---7-------7-7---7-----7---------10-10-10-10-|
G|---------------------------------------------------------------------|
D|---------------------------------------------------------------------|
A|---------------------------------------------------------------------|
D|---------------------------------------------------------------------|

-Enter rhythm:
e|--------------------------------------------------|----------------|
B|--------------------------------------------------|----------------|
G|--------------------------------1111(11)1111111111|1111111111111111|
D|--------------------------------------------------|----------------|
A|---------------------------------9-9(9)-9-9-9-9-9-|9-9-9-9-9-9-9-9-|
D|--------------------------------------------------|----------------|

-Lead:
e|-9---9-9-----9---9-9-9---9---9-9-7-----7---7-7---7-7-7-7-7--7--7--7--|
B|---7-----7-7---7-------7---7-------7-7---7-----7---------10-10-10-10-|
G|---------------------------------------------------------------------|
D|---------------------------------------------------------------------|
A|---------------------------------------------------------------------|
D|---------------------------------------------------------------------|

-Rhythm:
e|----------------------------------------------------------------|
B|----------------------------------------------------------------|
G|-1111111113------14-----18------16-------13------14------9------|
D|----------------------------------------------------------------|
A|-9-9-9-9-11------12-----16------14-------11------12------7------|
D|----------------------------------------------------------------|

-Lead:
e|-9---9-9-----9---9-9-9---9---9-9-7-----7---7-7---7-7-7-7-7--7--7--7--|
B|---7-----7-7---7-------7---7-------7-7---7-----7---------10-10-10-10-|
G|---------------------------------------------------------------------|
D|---------------------------------------------------------------------|
A|---------------------------------------------------------------------|
D|---------------------------------------------------------------------|

-Rhythm:
e|----------------------------------------------------------------|
B|----------------------------------------------------------------|
G|-11------13------14-----18------16-------13------14------9------|
D|----------------------------------------------------------------|
A|-9-------11------12-----16------14-------11------12------7------|
D|----------------------------------------------------------------|

   let ring======================================================>
e|----------------------------------------------------------------|
B|----------------------------------------------------------------|
G|-11-------------------------------------------------------------|
D|----------------------------------------------------------------|
A|-9--------------------------------------------------------------|
D|----------------------------------------------------------------|

-Lead:
e|----------------------------------------------------------------|
B|----------------------------------------------------------------|
G|----------------------------------------------------------------|
D|---------------------------------------------------------4-4----|
A|---------------------------------------------------------4-4----|
D|---------------------------------------------------------4-4----|

Then the last bit is just string noise. There you go, finally got it finished!

************************************

| /   slide up
| \   slide down
| h   hammer-on
| p   pull-off
| ~   vibrato
| +   harmonic
| x   Mute note
| b   Bend
| pb  Pre-bend
| br  Bend release
| pbr Pre-bend release
| brb Bend release bend

************************************
comments
We did not receive enough feedback on this tab! Please rate:
print report bad tab
1 2 3 4 5
I want to post or [tab]
guest
You may want to rate the tab now too:
select rating
Please do not post tabs as comments. Select "correction" instead!