Oops, an error
Loading. Please wait.
We have an official Breaking The Habit tab made by UG professional guitarists. Check out the tab »
×
18,976 views 33 this week
3 commentsread comments
1 2 3 4 5
x 15
add to favorites
launch autoscroll
font size
0
reset
guitar tuner
backing track
0:00
0:00
×
Best way to learn
"Breaking The Habit"
Autoscroll
slow
fast
+/-
esc
set tempo
stop
Author
|-------------------------------------------------------------------------------|
|	                Breaking The Habit - Linkin Park		       |
|-------------------------------------------------------------------------------|

Tabbed By : Jacob Bartlett
e-mail: acobjoe@subpatch.com

Tuning: E-A-D-G

Intro (0:09)
G|--------------------------------------|
D|--2-----------------------------------|
A|------------3----------2----------2---|
E|--------------------------------------| x2

Verse 1 (no bass)

Chorus (0:47)
G|--------------------------------------|
D|--2-----------------------------------|
A|------------3----------2----------2---|
E|--------------------------------------| x3

G|--------------------------------------|
D|------------0----0-------------0----0-|
A|--3----3-------------3----3-----------|
E|--------------------------------------|

Verse 2 (1:16)
G|--------------------------------------|
D|--2--------0--------2--------2-----4--|
A|--------------------------------------|
E|--------------------------------------| x3

(1:36)
G|-------------------------|------------|
D|-------------------------|------------|
A|-3--------0---------3----|--------2---|
E|-------------------------|------------| x2 (on 2nd time only play the first part)

Chorus (1:45)
G|--------------------------------------|
D|--2-----------------------------------|
A|------------3----------2----------2---|
E|--------------------------------------| x3

G|--------------------------------------|
D|------------0----0-------------0----0-|
A|--3----3-------------3----3-3---------|
E|--------------------------------------|

(2:09)
G|-----------------------0----------2---|
D|--2---------4-------------------------|
A|--------------------------------------|
E|--------------------------------------| x2

Chorus (2:28)
G|--------------------------------------|
D|--2-----------------------------------|
A|------------3----------2----------2---|
E|--------------------------------------| x3

G|-------------------|------------------|
D|------------0----0-|-----------0----0-|
A|--3----3-----------|-3----3-----------|
E|-------------------|------------------| play 1 and a half times and that's it.


| /  slide up
| \  slide down
| h  hammer-on
| p  pull-off
| ~  vibrato
| +  harmonic
| x  Mute note
===============================================================================
Suggest correction
comments
print report bad tab
3 comments total.
0 reply
BaSs_PiCkEr 10 Jan 28, 2005 07:00 PM

Nice

0 reply
theAlts 52 Jul 25, 2008 09:42 AM

Very nice

0 reply
davidpn 207 Feb 02, 2015 02:12 AM

Verse looks wrong, should be:

G|------------------4-------------------|
D|--2-----0--2---------2-----0----2-----|
A|--------------------------------------|
E|--------------------------------------|

guest
You may want to rate the tab now too:
select rating
Wanna post a correction for this tab? Suggest correction