Oops, an error
Loading. Please wait.
We have an official Burn It Down tab made by UG professional guitarists. Check out the tab »
×
17,001 views 9 this week
no commentswrite comment
1 2 3 4 5
x 7
add to favorites
×
Save as Personal and add changes to this tab that will be seen only by you. Learn more ›
×
You can save this tab as Personal to edit and correct it or add notes. All changes will be seen only by you. Learn more »
launch autoscroll
font size
0
reset
guitar tuner
backing track
0:00
0:00
edit
Autoscroll
slow
fast
+/-
esc
set tempo
stop
-------------------------------------------------------------------------------
                             BURN IT DOWN - Linkin Park
-------------------------------------------------------------------------------

Tabbed By : Vaughn 'VinnyVee'
e-mail: enjoigrindking@hotmail.com

If you're going to rate poorly or say I'm missing notes, please inform me of
any corrections I can address. Thanks!

Tuning: Drop-D

x2 @ :26
G|---------------------------------------------------------------------------|
D|---------------------------------------------------------------------------|
A|---------------------------------------------------------------------------|
D|0-0-0-0-0-0-2-2-3-3-3-3-3-3------7-7-7-7-7-7-9-9-5-5-5-5-5-5---------------|

x3 @ 1:10
G|---------------------------------------------------------------------------|
D|---------------------------------------------------------------------------|
A|---------------------------------------------------------------------------|
D|0-0-0-0-0-0-2-2-3-3-3-3-3-3------7-7-7-7-7-7-9-9-5-5-5-5-5-5---------------|

x2 @ 2:11
G|---------------------------------------------------------------------------|
D|---------------------------------------------------------------------------|
A|---------------------------------------------------------------------------|
D|0-0-0-0-0-0-2-2-3-3-3-3-3-3------7-7-7-7-7-7-9-9-5-5-5-5-5-5---------------|


x5 @ 2:55
G|---------------------------------------------------------------------------|
D|---------------------------------------------------------------------------|
A|---------------------------------------------------------------------------|
D|0-0-0-0-0-0-2-2-3-3-3-3-3-3------7-7-7-7-7-7-9-9-5-5-5-5-5-5---------------|


Note that there are moments where synth bass is playing the exact same notes
in between these choruses, but bass guitar is only in the chorus. Cheers!


| /  slide up
| \  slide down
| h  hammer-on
| p  pull-off
| ~  vibrato
| +  harmonic
| x  Mute note
===============================================================================

            
            
Suggest correction
Creating personal tab
Creating personal tab
You can edit any tab online and save it as your Personal.

You can edit, replace or remove any tab part or add personal notes – all changes will be seen only by you.

Personal tabs can be accessed anytime from any device, even offline.
Learn more »
comments
print report bad tab
guest
You may want to rate the tab now too:
select rating
Wanna post a correction for this tab? Suggest correction