Oops, an error
Loading. Please wait.

Burn It Down Tab

version 1
version 1
25,012 views 15 this week
5 commentsread comments
1 2 3 4 5
excellent!
x 22
add to favorites
launch autoscroll
font size
0
reset
how to read this tab
guitar tuner
Autoscroll
slow
fast
+/-
esc
set tempo
stop
Help us to improve Ultimate-Guitar.com Take our survey!
×
Author
-------------------------------------------------------------------------------
                         Burn It Down - Linkin Park
-------------------------------------------------------------------------------
Tabbed by: Messwifhim
Email: Mark_tang_sux@hotmail.com

Tuning:

e|----8-------10-8-----8-7-----|(Repeat)
B|------8-10-------10------8---|
G|7-9--------------------------|
D|-----------------------------|
A|-----------------------------|
E|-----------------------------|



************************************

| /   slide up
| \   slide down
| h   hammer-on
| p   pull-off
| ~   vibrato
| +   harmonic
| x   Mute note
| b   Bend
| pb  Pre-bend
| br  Bend release
| pbr Pre-bend release
| brb Bend release bend

************************************
Suggest correction
comments
print report bad tab
5 comments total. Showing first comments.
0 reply
MusicMaster94 52 wrote on April 22 2012, 08:54 am

It's very good but the last three notes are:

e|--8-7-----|
B|------8---|
G|----------|
D|----------|
A|----------|
E|----------|

0 reply
Messwifhim 77 wrote on April 26 2012, 05:25 am

haha yeah! i think i tabbed it wrongly by accident! Thanks for pointing it out (;

+1 reply
fsc1 10 wrote on December 17 2012, 10:58 am

I play it like this

e|----8-8------10-8------8-7---|
B|--------8-10-------10-8----8-|
G|7-9--------------------------|
D|-----------------------------|
A|-----------------------------|
E|-----------------------------|

guest
You may want to rate the tab now too:
select rating
Wanna post a correction for this tab? Suggest correction