Oops, an error
Loading. Please wait.

Burn It Down Tab

version 2
version 2
8,361 views 1 this week
1 commentread comment
1 2 3 4 5
1 last vote to show rating
add to favorites
launch autoscroll
font size
0
reset
how to read this tab
guitar tuner
Autoscroll
slow
fast
+/-
esc
set tempo
stop
Help us to improve Ultimate-Guitar.com Take our survey!
×
Author
Difficulty
novice
C'est une musique très simple et sympa à jouer :)
It's very simple musique and very fun :)

Drop D
Intro/Verse : (8sec)
E ----------------------------------------------------------------|
B ---6-8-13------8-10------15-13-10------13-12-8------------------|
G ----------------------------------------------------------------| x2
D ----------------------------------------------------------------|
A ----------------------------------------------------------------|
D ----------------------------------------------------------------|

Répéter ça : à 1m27 x1 ; et à partir de 3min12 jusqu'à la fin ou alors jouer le refrain ^^
Repeat : at 1m27 x1 and at 3min 12 if you want or play the chorus.

Refrain/Chorus :

E --------------------------------------------------|
B --------------------------------------------------|
G --------------------------------------------------|
D -00000002-3333333---777777779-5555555-------------|
A -00000002-3333333---777777779-5555555-------------|
D -00000002-3333333---777777779-5555555-------------|

Pour le pont y a une note dont je ne suis pas sûr mais je trouve que ça passe :)
Bridge : I'm not very sure but i like the bridge like this :)

E --------------------------------------------------------------|
B ----6--3------------------------------------------------------|
G ---------2----------5--7--------------------------------------|
D --------------------------5-----------------------------------| x2
A --------------------------------------------------------------|
D --------------------------------------------------------------|

Après vous avez juste à suivre le rythme amusez vous bien :)
After you follow the rythm, have fun :)

/!\ I posted the same tab but now i have added the bridge ;)
    J'ai posté la même tab sauf que là j'ai rajouté le bridge ;)
Suggest correction
Give kudos to tab author, rate the tab!
1 2 3 4 5
comments
print report bad tab
1 comment total.
0 reply
lptdgfan97 10 Jun 22, 2012 02:38 PM

[Tab]E ----------------------------------------------------------------|
B ---3-5-13------8-10------15-13-10------13-12-8------------------|
G ----------------------------------------------------------------| x2
D ----------------------------------------------------------------|
A ----------------------------------------------------------------|
D ----------------------------------------------------------------|

guest
You may want to rate the tab now too:
select rating
Wanna post a correction for this tab? Suggest correction