Oops, an error
Loading. Please wait.

Burn It Down Tab

version 3
version 3
3,422 views 1 this week
1 commentread comment
1 2 3 4 5
accurate
x 3
add to favorites
launch autoscroll
font size
0
reset
how to read this tab
guitar tuner
Autoscroll
slow
fast
+/-
esc
set tempo
stop
Help us to improve Ultimate-Guitar.com Take our survey!
×
Author
Difficulty
novice
Intro (Dm F Am G)

e|----8-------10-8-----8---8---|(2x)
B|------8-10-------10----7-----|
G|7-9--------------------------|
D|-----------------------------|
A|-----------------------------|
E|-----------------------------|

Verse:
Dm F Am G

Chorus:
Dm F C G

Mike Shinoda Verse

e|-----------------------------|(2x)
B|6-5--------------------------|
G|------5-7-4------------------|
D|----7------------------------|
A|-----------------------------|
E|-----------------------------|
Suggest correction
Give kudos to tab author, rate the tab!
1 2 3 4 5
comments
print report bad tab
1 comment total.
0 reply
YEIS0N 127 wrote on July 3 2016, 01:30 pm

e|----8-------10-8-------8-7---|(2x)
B|------8-10-------10-10-----8-|
G|7-9--------------------------|
D|-----------------------------|
A|-----------------------------|
E|-----------------------------|

guest
You may want to rate the tab now too:
select rating
Wanna post a correction for this tab? Suggest correction