Oops, an error
Loading. Please wait.

Burn It Down Tab

version 4
version 4
4,991 views 1 this week
no commentswrite comment
1 2 3 4 5
please rate
add to favorites
launch autoscroll
font size
0
reset
how to read this tab
guitar tuner
Tab Pro tools
  • play this tab
  • loop segment
  • change instrument
  • show fretboard
  • metronome
×
Best way to learn
"Burn It Down"
Autoscroll
slow
fast
+/-
esc
set tempo
stop
Contributor
Burn it down
New song from the new LP album "Living Things"
Tabbed by galva94

Tuning: drop D

Intro (0:00 - 0:08)
E|-------------|-------------|
B|-------------|-13----------|
G|-10-------12-|-14----------|
D|-12-------14-|-15----------|
A|-------------|-------------|
D|-------------|-------------|
   1+ 2+ 3+ 4+   1+ 2+ 3+ 4+
E|-------------|-------------|
B|-------------|-------------|
G|-17-------16-|-12----------|
D|-19-------17-|-12----------|
A|-------------|-------------|
D|-------------|-------------|
   1+ 2+ 3+ 4+   1+ 2+ 3+ 4+

2x Synth Intro (come in at 0:08 while Intro still continue)
E|-------------|-------------|-------------|-------------|
B|-------------|-------------|-------------|-------------|
G|-------17----|-------------|-------------|-------------|
D|----15-------|-------17----|-19----------|-------------|
A|-17----------|-------------|-------------|-------------|
D|-------------|-------------|-------------|-------------|
   1  +  2  +    3  +  4  +    1  +  2  +    3  +  4  +

E|-------------|-------------|-------------|-------------|
B|-------------|-------------|-------------|-------------|
G|-19-17-------|-------------|-17-16-------|-------------|
D|-------19----|------(17)---|-------17----|-------------|
A|-------------|-------------|-------------|-------------|
D|-------------|-------------|-------------|-------------|
   1  +  2  +    3  +  4  +    1  +  2  +    3  +  4  +


2x Guitar Intro (come in at 0:26 over intro and synth)
Let ring the chords and listen to the stops in the song (not sure of this part)
E|-------------|-------------|
B|-------------|-------------|
G|-------------|-------------|
D|-0--------2--|-3-----------|
A|-0--------2--|-3-----------|
D|-0--------2--|-3-----------|
   1+ 2+ 3+ 4+   1+ 2+ 3+ 4+
E|-------------|-------------|
B|-------------|-------------|
G|-------------|-------------|
D|-7--------9--|-5-----------|
A|-7--------9--|-5-----------|
D|-7--------9--|-5-----------|
   1+ 2+ 3+ 4+   1+ 2+ 3+ 4+

Verse begins at 0:44
E|-------------|-------------|
B|-------------|-------------|
G|-------------|-------------|
D|---------(17)|(19)---------|
A|(17)---------|-------------|
D|-------------|-------------|
   1+ 2+ 3+ 4+   1+ 2+ 3+ 4+

E|-------------|-------------|
B|-------------|-------------|
G|(17)-----(16)|-------------|
D|-------------|(17)---------|
A|-------------|-------------|
D|-------------|-------------|
   1+ 2+ 3+ 4+   1+ 2+ 3+ 4+

Chorus (1:11)
Let ring every chords
E|-------------|-------------|
B|-------------|-------------|
G|-------------|-------------|
D|-0--------2--|-3-----------|
A|-0--------2--|-3-----------|
D|-0--------2--|-3-----------|
   1+ 2+ 3+ 4+   1+ 2+ 3+ 4+
E|-------------|-------------|
B|-------------|-------------|
G|-------------|-------------|
D|-7--------9--|-5-----------|
A|-7--------9--|-5-----------|
D|-7--------9--|-5-----------|
   1+ 2+ 3+ 4+   1+ 2+ 3+ 4+

E|-------------|-------------|
B|-------------|-------------|
G|-------------|-------------|
D|-0--------2--|-3-----------|
A|-0--------2--|-3-----------|
D|-0--------2--|-3-----------|
   1+ 2+ 3+ 4+   1+ 2+ 3+ 4+
E|-------------|-------------|
B|-------------|-------------|
G|-------------|-------------|
D|-7--------9--|-5-----------|
A|-7--------9--|-5-----------|
D|-7--------9--|-5-----------|
   1+ 2+ 3+ 4+   1+ 2+ 3+ 4+

After chorus play Synth intro and Guitar intro one time (1:28 - 1:36)

Verse again (1:36 - 2:10)

Chorus again (2:10 - 2:29)

2x Mike part (2:29 - 2:45)

E|-------------|-------------|
B|-------------|-------------|
G|-------------|-------------|
D|-15-------14-|-------------|
A|-------------|-12----------|
D|-------------|-------------|
   1+ 2+ 3+ 4+   1+ 2+ 3+ 4+

E|-------------|-------------|
B|-------------|-------------|
G|-------------|-------------|
D|-10-------12-|-------------|
A|-------------|-10----------|
D|-------------|-------------|
   1+ 2+ 3+ 4+   1+ 2+ 3+ 4+

Chester interlude: reapeat verse one time (2:45 - 2:55)

Last chorus (2:55 - 3:12)

E|-------------|-------------|
B|-------------|-------------|
G|-------------|-------------|
D|-0--------2--|-3-----------|
A|-0--------2--|-3-----------|
D|-0--------2--|-3-----------|
   1+ 2+ 3+ 4+   1+ 2+ 3+ 4+
E|-------------|-------------|
B|-------------|-------------|
G|-------------|-------------|
D|-7--------9--|-5-----------|
A|-7--------9--|-5-----------|
D|-7--------9--|-5-----------|
   1+ 2+ 3+ 4+   1+ 2+ 3+ 4+

E|-------------|-------------|
B|-------------|-------------|
G|-------------|-------------|
D|-0--------2--|-3-----------|
A|-0--------2--|-3-----------|
D|-0--------2--|-3-----------|
   1+ 2+ 3+ 4+   1+ 2+ 3+ 4+
E|-------------|-------------|
B|-------------|-------------|
G|-------------|-------------|
D|-7--------9--|-5-----------|
A|-7--------9--|-5-----------|
D|-7--------9--|-5-----------|
   1+ 2+ 3+ 4+   1+ 2+ 3+ 4+

Repeat 3x Synth intro part with Guitar intro part (3:12 - 3:30)
(this time Chester sings and Mike raps, for the first two time. The third time is only 
instrumental and without the first part of the Guitar Intro: guitar come in a bit late)

Ends as the intro
comments
We did not receive enough feedback on this tab! Please rate:
print report bad tab
1 2 3 4 5
I want to post or [tab]
guest
You may want to rate the tab now too:
select rating
Please do not post tabs as comments. Select "correction" instead!