Oops, an error
Loading. Please wait.

Burn It Down Tab

version 6
version 6
10,429 views 7 this week
1 commentread comment
1 2 3 4 5
accurate
x 7
add to favorites
launch autoscroll
font size
0
reset
how to read this tab
guitar tuner
Tab Pro tools
  • play this tab
  • loop segment
  • change instrument
  • show fretboard
  • metronome
×
Best way to learn
"Burn It Down"
Autoscroll
slow
fast
+/-
esc
set tempo
stop
Contributor
Linkin Park - 'Burn it Down' in Standard tuning.
Of Course it's not 100% right, but it is just my version and i hope it will be 
helpful for someone.

------
Intro
------
Piano
Var.1
e|-------------|(Repeat)
B|-------------|
G|-------2-4-0-|
D|0-2-3--------|
A|-------------|
E|-------------|

Var.2
e|-------------|(Repeat)
B|-------------|
G|-------7-9-5-|
D|5-7-8--------|
A|-------------|
E|-------------|

Synth
e|----8---------------------------|(Repeat)
B|-------8-10--15-13-10--13-12-10-|
G|7-9-----------------------------|
D|--------------------------------|
A|--------------------------------|
E|--------------------------------|

Guitar
e|--------------------------------------|(Repeat)
B|--------------------------------------|
G|-777777-9-----------------------------|
D|-777777-9-33333333--777777-9-55555555-|
A|-555555-7-33333333--777777-9-55555555-|
E|----------11111111--555555-7-33333333-|

------
Verse
------
Piano
Var.1
e|-------------|(Repeat)
B|-------------|
G|-------2-4-0-|
D|0-2-3--------|
A|-------------|
E|-------------|

Var.2
e|-------------|(Repeat)
B|-------------|
G|-------7-9-5-|
D|5-7-8--------|
A|-------------|
E|-------------|

-------
Chorus
-------
Guitar
e|--------------------------------------|(Repeat)
B|--------------------------------------|
G|-777777-9-----------------------------|
D|-777777-9-33333333--777777-9-55555555-|
A|-555555-7-33333333--777777-9-55555555-|
E|----------11111111--555555-7-33333333-|

Piano
Var.1
e|-------------|(Repeat)
B|-------------|
G|-------2-4-0-|
D|0-2-3--------|
A|-------------|
E|-------------|

Var.2
e|-------------|(Repeat)
B|-------------|
G|-------7-9-5-|
D|5-7-8--------|
A|-------------|
E|-------------|

Then
Synth
e|----8---------------------------|(Repeat)
B|-------8-10--15-13-10--13-12-10-|
G|7-9-----------------------------|
D|--------------------------------|
A|--------------------------------|
E|--------------------------------|

Then
Verse
Chorus
Brige
e|-------------|(Repeat)
B|-------------|
G|-------2-4-0-|
D|0-2-3--------|
A|-------------|
E|-------------|

And outro like an intro
End.
comments
print report bad tab
1 comment total.
+1 reply
LD1 wrote on April 7 2013, 12:51 am

I feel the synth part should be the 8th fret instead of the 10th. but a great tab! keep it up.

e|----8---------------------------|(Repeat)
B|-------8-10--15-13-10--13-12-"8"|
G|7-9-----------------------------|

I want to post or [tab]
guest
You may want to rate the tab now too:
select rating
Please do not post tabs as comments. Select "correction" instead!