Oops, an error
Loading. Please wait.

By Myself Tab

version 2
version 2

Whole song

Interactive

6,430 views 1 this week
4 commentsread comments
1 2 3 4 5
x 11
add to favorites
launch autoscroll
font size
0
reset
how to read this tab
guitar tuner
×
Best way to learn
"By Myself"
Autoscroll
slow
fast
+/-
esc
set tempo
stop
Song 7:
Title:By Myself
Tunning:Dropped D one half step down
C# G# C# F# A# D#

x|------------------|x
x|------------------|x
x|------------------|x
x|----------7-7--9*-|x  <--4 times
x|----------7-7-----|x
x|-1-1-1-1--7-7-----|x

and right after the last time....
                                      x|---------|x
                                      x|---------|x
                                      x|---------|x
                                      x|---------|x
                                      x|---------|x
                                      x|-1-1-1-1-|x
   
There is no guitar part in the verse but may want to play the background soft sounds.
  x|------------------------|x                                      x|---------|x
  x|------------------------|x                                      x|---------|x
  x|-5---4---7---5---4/5----|x  <---Let the notes ring              x|---------|x
  x|------------------------|x                                      x|-1-1-1-1-|x
  x|------------------------|x Play this between 2nd & 3rd time---->x|-1-1-1-1-|x
  x|------------------------|x                                      x|-1-1-1-1-|x

Pre-Chorus:
x|------------------|x
x|------------------|x
x|------------------|x
x|----------7-7--9*-|x  <--4 times
x|----------7-7-----|x
x|-1-1-1-1--7-7-----|x

Chorus:
x|------------------|x
x|------------------|x
x|------------------|x <---play four times
x|7-7-7---3-3-3---0-|x
x|7-7-7---3-3-3---0-|x
x|7-7-7-7-3-3-3-3-0-|x

Verse
Pre-Chorus
Chorus

Bridge
x|----------------|x
x|----------------|x
x|----------------|x
x|---------7------|x  <--8 times
x|---------7------|x
x|-1-1-1-1/7------|x

Intro
Pre-Chorus
Chorus(x3)
Suggest correction
comments
print report bad tab
4 comments total. Showing first comments.
-1 reply
LPfan4603 30 Dec 12, 2003 07:00 PM

your close...
one thing (just for reference)... whe u show the tuning for drop D one half step down... u usually say...
(low to high) Db Ab Db Gb Bb Eb instead of sharp
its the same thing its just usually written with the flats instead of sharps

and the intro/pre-chorus is.... (b = bend)
|-----------------------------------|
|-----------------------------------|
|-----------------------9b---------|
|-1-1--1-1--1/7-7--9b---------|
|-1-1--1-1--1/7-7---------------|
|-1-1--1-1--1/7-7---------------|

-1 reply
LPfan4603 30 Dec 12, 2003 07:00 PM

dam it!!!

-1 reply
LPfan4603 30 Dec 12, 2003 07:00 PM

play the 9's together

guest
You may want to rate the tab now too:
select rating
Wanna post a correction for this tab? Suggest correction