Oops, an error
Loading. Please wait.
We have an official By Myself tab made by UG professional guitarists. Check out the tab »
×
118 views 1 this week
1 commentread comment
1 2 3 4 5
x 4
add to favorites
×
Save as Personal and add changes to this tab that will be seen only by you. Learn more ›
×
You can save this tab as Personal to edit and correct it or add notes. All changes will be seen only by you. Learn more »
launch autoscroll
font size
0
reset
guitar tuner
edit
Autoscroll
slow
fast
+/-
esc
set tempo
stop
[Intro]
F#|-------------------------| (x4)
C#|-------------------------|
G#|-------------------------|
C#|-----1--1-1--1-7-7-------|

F#|-------------------------| 
C#|-------------------------|
G#|-------------------------|
C#|-----1--1-1--1-----------|

[Verse] 
(let the note ring)
F#|---------------------|
C#|---------------------|
G#|---------------------|
C#|---7-----------------|

[Chorus]
F#|-------------------------| (x4)
C#|-------------------------|
G#|-------------------------|
C#|----1--1-1--1-7-7--------|
                         
F#|----------------|---------------------| (x4)
C#|----------------|---------------------|
G#|----------------|---------------------|
C#|-----1--1-1--1--|-7----------3---0----|

[Verse] 
(let the note ring)
F#|---------------------|
C#|---------------------|
G#|---------------------|
C#|---7-----------------|

[Chorus]
F#|-------------------------| (x4)
C#|-------------------------|
G#|-------------------------|
C#|------1--1-1--1-7-7------|
                         
F#|----------------|---------------------| (x4)
C#|----------------|---------------------|
G#|----------------|---------------------|
C#|------1--1-1--1-|-7--------3---0------|

[Pre-Bridge] 
(no bass)

[Bridge and Final Chorus]
F#|-------------------------| (x8)
C#|-------------------------|
G#|-------------------------|
C#|------1--1-1--1-7-7------|
                         
F#|----------------|---------------------| (x8)
C#|----------------|---------------------|
G#|----------------|---------------------|
C#|------1--1-1--1-|-7-------3---0-------|
Suggest correction
Creating personal tab
Creating personal tab
You can edit any tab online and save it as your Personal.

You can edit, replace or remove any tab part or add personal notes – all changes will be seen only by you.

Personal tabs can be accessed anytime from any device, even offline.
Learn more »
comments
print report bad tab
1 comment total.
0 reply
sasukeuchiha42 43 Dec 29, 2016 04:32 PM

Perfect :)

guest
You may want to rate the tab now too:
select rating
Wanna post a correction for this tab? Suggest correction