Oops, an error
Loading. Please wait.

By Myself Tab

version 3
version 3

Whole song

Interactive

22,200 views 27 this week
5 commentsread comments
1 2 3 4 5
excellent!
x 6
add to favorites
launch autoscroll
font size
0
reset
how to read this tab
guitar tuner
Autoscroll
slow
fast
+/-
esc
set tempo
stop
Help us to improve Ultimate-Guitar.com Take our survey!
×
Difficulty
Tuning
novice
D# G# C# F# A# D#
In addition to the Half-Step Down tuning, this song is also in
Dropped-D tuning.  
Enjoy!

Key:  *=Palm Mute
     (* )=Pinch Harmonics
      b=Bend string

Main Riff:
|------------------------|
|------------------------|
|------------------------|
|-1-1--1--1--7--7--b(*9)-|
|-1-1--1--1--7--7--------|
|-1-1--1--1--7--7--------|
  * *  *  *

Verse:
I'm not sure if the guitar actually plays this part, but this is what I hear:
|-------------------|
|-------------------|
|-5~--4~--7~--5~-4~-|
|-------------------|
|-------------------|
|-------------------|
After 2 times of playing the above,
|--------------|
|--------------|
|--------------|
|-1-1--1--1--7-|
|-1-1--1--1--7-|
|-1-1--1--1--7-|
  * *  *  *

Pre-Chorus:
|------------------------|
|------------------------|
|------------------------|
|-1-1--1--1--7--7--b(*9)-|
|-1-1--1--1--7--7--------|
|-1-1--1--1--7--7--------|
  * *  *  *
Chorus:
|-------------------------|
|-------------------------|
|-------------------------|
|-7~--3--x-x--x-0--x-x--x-|
|-7~--3--x-x--x-0--x-x--x-|
|-7~--3--x-x--x-0--x-x--x-|

Bridge:
|-------------|
|-------------|
|-------------|
|-1-1--1--1-7-|
|-1-1--1--1-7-|
|-1-1--1--1-7-|
  * *  *  *

Order of Song:
Main Riff x4
Verse x3
Pre-Chorus x4
Chorus x4
Verse x2
Pre-Chorus x4
Chorus x4
Bridge x7
Pre-Chorus x7
Chorus x8

Hope you enjoyed!
Suggest correction
comments
print report bad tab
5 comments total. Showing first comments.
-1 reply
wtflolbbq 334 wrote on September 8 2009, 09:40 pm

just saying, its not in drop d if its tuned a halfstep down

+3 reply
Terquoise 52 wrote on July 6 2011, 08:46 am

He must have meant drop Db. Thats the right tuning

-1 reply
ls4686 10 wrote on August 10 2011, 07:39 pm

I think the main riff is:
|------------------------|
|------------------------|
|------------------------|
|-1-1-1-1-1--7--7--b(*9)-|
|-1-1-1-1-1--7--7--------|
|-1-1-1-1-1--7--7--------|

guest
You may want to rate the tab now too:
select rating
Please do not post tabs as comments. Select "correction" instead!