Oops, an error
Loading. Please wait.

Castle Of Glass Bass Tab

version 1
version 1

Whole song

Interactive

14,180 views 9 this week
no commentswrite comment
1 2 3 4 5
accurate
x 9
add to favorites
launch autoscroll
font size
0
reset
guitar tuner
Autoscroll
slow
fast
+/-
esc
set tempo
stop
Help us to improve Ultimate-Guitar.com Take our survey!
×
Author
begining:
G|---------------------------------------------------------------------------|
D|---------------------------------------------------------------------------|
A|-4---4--6-7-6---4-----------4------------------4---4------4----4------4--4-|
E|--------------------7---7-------2---2-----2-----------2------------2-------|


Cause I'm only a crack in this castle of glass
Hardly anything there for you to see.
For you to see

for you to see...
G|---------------------------------------------------------------------------|
D|---------------------------------------------------------------------------|
A|-4---4--6-7-6---4-----------4------------------4---4------4----4------4--4-|
E|--------------------7---7-------2---2-----2-----------2------------2-------|



tabs by: navekeinan, check my youtube channel 
Suggest correction
comments
print report bad tab
guest
You may want to rate the tab now too:
select rating
Wanna post a correction for this tab? Suggest correction