Oops, an error
Loading. Please wait.
We have Chord Pro version of Castle Of Glass.
It's the closest thing you can get to the original song and it has interactive parts. Check out the tab »
×
145,941 views 219 this week
6 commentsread comments
1 2 3 4 5
x 18
add to favorites
launch autoscroll
font size
0
reset
how to read this tab
guitar tuner
Autoscroll
slow
fast
+/-
esc
set tempo
stop
Author
Tuning
E A D G B E
(Rythm Guitar)


[Intro]

e|--------------------------------------------------------------------------------------|
B|--------------------------------------------------------------------------------------|
G|--------------------------------------------------------------------------------------| 
D|-----------1--2--1--------------------------------------------------------------------|  
A|--2--4--4-----------4--2--2--4--------------------------------------------------------|
E|--------------------------------2-----------------------------------------------------|(x3)

e|--------------------------------------------------------------------------------------|
B|--------------------------------------------------------------------------------------|
G|--------------------------------------------------------------------------------------| 
D|--------------------------------------------------------------------------------------|  
A|--2--4--4--4-4--4--4--2--2--2-2--2--2---4-4----4-4----4-4----4-4----------------------|
E|--------------------------------------------------------------------------------------|


[Verse]

e|-------------------------------------------------------------------------------------|
B|-------------------------------------------------------------------------------------|
G|-------------------------------------------------------------------------------------|   
D|------------------------------------------1-1--1-1--1-1--1-1--2-2--2-1---------------| 
A|--4-4--4-4--4-4--4-4--4-4--4-4--4-4--4-4-------------------------------4--4-4--4-4---|
E|-------------------------------------------------------------------------------------|(x2)


[Chorus]

e|-------------------------------------------------------------------------------------|
B|-------------------------------------------------------------------------------------|
G|--------------------------------------------------1-1-1-1----------------------------|
D|--------------1---2-2-2-2-2-2-4-2-4-4-4-4-4-4-4-4---------4-4-4-4--------------------| 
A|--4-4-4-4-4-4---4--------------------------------------------------------------------|
E|-------------------------------------------------------------------------------------|(x2)


[Intro]


[Verse]


[Chorus]


[Bridge]

e|--------------------------------------------------------------------------------------|
B|--------------------------------------------------------------------------------------|
G|--------------------------------------------------------------------------------------| 
D|--------1--2--1-----------------------------------------------------------------------| 
A|--4--4-----------4--2--2--4--------2--4-4--2-4-4--2-4-4--2-4-4------------------------|
E|------------------------------2-------------------------------------------------------|(x2)


[Chorus]


[Intro]


(Lead Guitar)


(Starts after the first chorus with)

e|--------------------------------------------------------------------------------------|
B|--------------------------------------------------------------------------------------|
G|--6-6-6-6-6-6-6-6-6-6-6-6-6-6-6-6-----------------------------------------------------| 
D|--6-6-6-6-6-6-6-6-6-6-6-6-6-6-6-6-----------------------------------------------------|
A|--4-4-4-4-4-4-4-4-4-4-4-4-4-4-4-4-----------------------------------------------------|
E|--------------------------------------------------------------------------------------|(x2)


[Chorus] (x2) 

e|-------------------------------------------------------------------------------------------|
B|-------------------------------------------------------------------------------------------|
G|--6-6-6-6-6-6-6-6-9-9-9-9-9-9-9-9-11-11-11-11-11-11-11-11-13-13-13-13-11-11-11-11----------|
D|--6-6-6-6-6-6-6-6-9-9-9-9-9-9-9-9-11-11-11-11-11-11-11-11-13-13-13-13-11-11-11-11----------|
A|--4-4-4-4-4-4-4-4-7-7-7-7-7-7-7-7-9--9--9--9--9--9--9--9--11-11-11-11-9--9--9--9-----------|
E|-------------------------------------------------------------------------------------------|


[Bridge/Solo] (x2) 

e|-------------------------------------------------------------------------|
B|-------------------------------------------------------------------------|
G|-6--6-6-6-8--9--8-8-8--6--4--4-4-4--6------4---6--6-6-6--4---6--6-6-6--4-|
D|-6--6-6-6-8--9--8-8-8--6--4--4-4-4--6--4---4---6--6-6-6--4---6--6-6-6--4-|
A|-4--4-4-4-6--7--6-6-6--4--2--2-2-2--4--4---2---4--4-4-4--2---4--4-4-4--2-|
E|---------------------------------------2---------------------------------|

e|--------------------------|
B|--------------------------|
G|--6--6-6-6--4---6--6-6-6--|
D|--6--6-6-6--4---6--6-6-6--|
A|--4--4-4-4--2---4--4-4-4--|
E|--------------------------|


[Chorus]


[Intro/Outro]
Suggest correction
comments
print report bad tab
6 comments total. Showing first comments.
0 reply
LeeeoooN 10 Mar 10, 2013 05:32 AM

hey...nice tabs..
but i thnik you missed something at the beginnig...or i play it wrong...i don't know..

0 reply
muffin97 288 Mar 14, 2013 09:32 AM

yeah, i missed one hit on the second fret of the E-string in the beginnig. you all should now know it. thx

0 reply
duble_kartal01 10 Mar 12, 2014 09:05 AM

e | --------------------------------------------------------------------------------------|
B | --------------------------------------------------------------------------------------|
G | --------------------------------------------------------------------------------------|
D | --------------------------------------------------------------------------------------| x 3
A | --4--4--6--7--6--4--2--2--4----------------------------------------------------------|
E | ----------------------------2---------------------------------------------------------|

I think :))

guest
You may want to rate the tab now too:
select rating
Wanna post a correction for this tab? Suggest correction