Oops, an error
Loading. Please wait.

Castle Of Glass Tab

version 1
version 1

Whole song

Interactive

134,430 views 252 this week
6 commentsread comments
1 2 3 4 5
accurate
x 17
add to favorites
launch autoscroll
font size
0
reset
how to read this tab
guitar tuner
Autoscroll
slow
fast
+/-
esc
set tempo
stop
Help us to improve Ultimate-Guitar.com Take our survey!
×
Author
muffin97 350
(Rythm Guitar)


[Intro]

e|--------------------------------------------------------------------------------------|
B|--------------------------------------------------------------------------------------|
G|--------------------------------------------------------------------------------------| 
D|--------------------------------------------------------------------------------------|  
A|--2--4--4--6--7--6--4--2--2--4--------------------------------------------------------|
E|--------------------------------2-----------------------------------------------------|(x3)

e|--------------------------------------------------------------------------------------|
B|--------------------------------------------------------------------------------------|
G|--------------------------------------------------------------------------------------| 
D|--------------------------------------------------------------------------------------|  
A|--2--4--4--4-4--4--4--2--2--2-2--2--2---4-4----4-4----4-4----4-4----------------------|
E|--------------------------------------------------------------------------------------|


[Verse]

e|-------------------------------------------------------------------------------------|
B|-------------------------------------------------------------------------------------|
G|-------------------------------------------------------------------------------------|   
D|-------------------------------------------------------------------------------------| 
A|--4-4--4-4--4-4--4-4--4-4--4-4--4-4--4-4--6-6--6-6--6-6--6-6--7-7--7-6-4--4-4--4-4---|
E|-------------------------------------------------------------------------------------|(x2)


[Chorus]

e|-------------------------------------------------------------------------------------|
B|-------------------------------------------------------------------------------------|
G|-------------------------------------------------------------------------------------|
D|-------------------------------------------------------------------------------------| 
A|--4-4-4-4-4-4-6-4-7-7-7-7-7-7-9-7-9-9-9-9-9-9-9-9-11-11-11-11-9-9-9-9----------------|
E|-------------------------------------------------------------------------------------|(x2)


[Intro]


[Verse]


[Chorus]


[Bridge]

e|--------------------------------------------------------------------------------------|
B|--------------------------------------------------------------------------------------|
G|--------------------------------------------------------------------------------------| 
D|--------------------------------------------------------------------------------------| 
A|--4--4--6--7--6--4--2--2--4--------2--4-4--2-4-4--2-4-4--2-4-4------------------------|
E|------------------------------2-------------------------------------------------------|(x2)


[Chorus]


[Intro]


(Lead Guitar)


(Starts after the first chorus with)

e|--------------------------------------------------------------------------------------|
B|--------------------------------------------------------------------------------------|
G|--6-6-6-6-6-6-6-6-6-6-6-6-6-6-6-6-----------------------------------------------------| 
D|--6-6-6-6-6-6-6-6-6-6-6-6-6-6-6-6-----------------------------------------------------|
A|--4-4-4-4-4-4-4-4-4-4-4-4-4-4-4-4-----------------------------------------------------|
E|--------------------------------------------------------------------------------------|(x2)


[Chorus] (x2) 

e|-------------------------------------------------------------------------------------------|
B|-------------------------------------------------------------------------------------------|
G|--6-6-6-6-6-6-6-6-9-9-9-9-9-9-9-9-11-11-11-11-11-11-11-11-13-13-13-13-11-11-11-11----------|
D|--6-6-6-6-6-6-6-6-9-9-9-9-9-9-9-9-11-11-11-11-11-11-11-11-13-13-13-13-11-11-11-11----------|
A|--4-4-4-4-4-4-4-4-7-7-7-7-7-7-7-7-9--9--9--9--9--9--9--9--11-11-11-11-9--9--9--9-----------|
E|-------------------------------------------------------------------------------------------|


[Bridge/Solo] (x2) 

e|-------------------------------------------------------------------------|
B|-------------------------------------------------------------------------|
G|-6--6-6-6-8--9--8-8-8--6--4--4-4-4--6------4---6--6-6-6--4---6--6-6-6--4-|
D|-6--6-6-6-8--9--8-8-8--6--4--4-4-4--6--4---4---6--6-6-6--4---6--6-6-6--4-|
A|-4--4-4-4-6--7--6-6-6--4--2--2-2-2--4--4---2---4--4-4-4--2---4--4-4-4--2-|
E|---------------------------------------2---------------------------------|

e|--------------------------|
B|--------------------------|
G|--6--6-6-6--4---6--6-6-6--|
D|--6--6-6-6--4---6--6-6-6--|
A|--4--4-4-4--2---4--4-4-4--|
E|--------------------------|


[Chorus]


[Intro/Outro]
Suggest correction new What's this?
You can suggest a correction to this tab. Community and Mods will review your correction and vote to approve or reject it.
comments
print report bad tab
6 comments total. Showing first comments. show 1 bad comment
0 reply
LeeeoooN 11 wrote on March 10 2013, 09:32 am

hey...nice tabs..
but i thnik you missed something at the beginnig...or i play it wrong...i don't know..

0 reply
muffin97 350 wrote on March 14 2013, 01:32 pm

yeah, i missed one hit on the second fret of the E-string in the beginnig. you all should now know it. thx

guest
You may want to rate the tab now too:
select rating
Please do not post tabs as comments. Select "correction" instead!