Oops, an error
Loading. Please wait.
We have Chord Pro version of Castle Of Glass.
It's the closest thing you can get to the original song and it has interactive parts. Check out the tab »
×
16,546 views 69 this week
no commentswrite comment
1 2 3 4 5
x 10
add to favorites
×
Save as Personal and add changes to this tab that will be seen only by you. Learn more ›
×
You can save this tab as Personal to edit and correct it or add notes. All changes will be seen only by you. Learn more »
launch autoscroll
font size
0
reset
guitar tuner
edit
Autoscroll
slow
fast
+/-
esc
set tempo
stop
Author
Difficulty
http://www.youtube.com/watch?v=4-iUzBFDmqs&feature=youtu.be
http://www.youtube.com/watch?v=w8ihlpaG3-Y

[00:14](intro optional)(bass don't play this part but it's funny to play)
G|----------------------------------------------|
D|----------------------------------------------|
A|-4---4--6-7-6---4-----------4-----------------|
E|--------------------7---7-------2---2-----2---|2x

G|----------------------------------------------------------------------|
D|----------------------------------------------------------------------|
A|-4---4--6-7-6---4-----------4----------------------------2-2--2-2-2-4-|
E|--------------------7---7-------2---2-----2--4-5-5--5-5---------------|

[0:54][verse 1](the bass enter here in this song) 
G|----------------------------------------------------------------------------|
D|----------------------------------------------------------------------------|
A|-4-4---4-4---4-4---4-4---4-4---4-4---4-4---4-4---2-2---2-2---2-2--4-4---4-4-|
E|-----2-----2-----2-----2-----2-----2-----2-----2-----2-----2----2-----2-----|

[1:11][Chorus]
G|-------------------------------------------------------------|
D|-------------------------------------------------------------|
A|-0-0-0-0-0-0-0-0-----------------2-2-2-2-2-2-2-2-4-4-4-4-4-4-|
E|-----------------0-0-0-0-0-0-0-0-----------------------------|

G|-------------------------------------------------------------|
D|-------------------------------------------------------------|
A|-0-0-0-0-0-0-0-0-----------------2-2-2-2-2-2-2-2-2-2-2-2-2-2-|
E|-----------------0-0-0-0-0-0-0-0-----------------------------|

[1:30][post chorus]
G|------------------------------------|
D|------------------------------------|
A|-4-4-4-4-4-4-4-4-2-2-2-2-2----------|
E|----------------------------2-2-2-2--|2x

[Verse 2][1:40]
G|----------------------------------------------------------------------------|
D|----------------------------------------------------------------------------|
A|-4-4-4-4-4-4-4-4-4-4-4-4-4-4-4-4-4-4-4-4-4-4-4-4-2-2-2-2-2-2-2-2--4-4-4-4-4-|
E|----------------------------------------------------------------------------|

[1:58]
[Solo 2:15]
G|-----------------------------------------------------------|
D|-----------------------------------------------------------|
A|-4-4-4-4-4-4-4-4-2-2-2-2-2---------2-4-4-4-2-4-4-4-2-4-4-4-|
E|----------------------------2-2-2-2-------------------------|x2
[Chorus 2:51]
[Post chorus 3:09]

[end 3:19]
G|------------------|
D|------------------|
A|-4-4--4-4--4-4--4-|
E|------------------|
[SCHEME]
[optional intro]
[verse 1]

[post chorus]
[verse 2]

[solo]

[post chorus]
[end]

            
            
Suggest correction
Creating personal tab
Creating personal tab
You can edit any tab online and save it as your Personal.

You can edit, replace or remove any tab part or add personal notes – all changes will be seen only by you.

Personal tabs can be accessed anytime from any device, even offline.
Learn more »
comments
print report bad tab
guest
You may want to rate the tab now too:
select rating
Wanna post a correction for this tab? Suggest correction