Oops, an error
Loading. Please wait.
We have Chord Pro version of Castle Of Glass.
It's the closest thing you can get to the original song and it has interactive parts. Check out the tab »
×
7,009 views 33 this week
2 commentsread comments
1 2 3 4 5
x 8
add to favorites
×
Save as Personal and add changes to this tab that will be seen only by you. Learn more ›
×
You can save this tab as Personal to edit and correct it or add notes. All changes will be seen only by you. Learn more »
launch autoscroll
font size
0
reset
how to read this tab
guitar tuner
edit
Autoscroll
slow
fast
+/-
esc
set tempo
stop
Artist: Linkin Park 
Song: Castle of Glass 
Album: Living Things (2012)
Guitarist: Mike Shinoda
Standard Tuning

NOTE: Brad Delson plays an acoustic guitar (and key's) on this 
song, but as it's almost inaudible I only tabbed Mike's guitar.



Intro 

(0:14-0:34)

e|-------------------------|    
B|-------------------------|    
G|-------------------------|    
D|-------------------------|(3x)
A|-4-4-6-7-6-4-2-2-4-------|    
E|-------------------2-2-2-|    

e|---------------------------------|
B|---------------------------------|
G|---------------------------------|
D|---------------------------------|
A|-0-0-0-0-0-2-2-2-2-2-4-4-4-4-4-4-|
E|---------------------------------|



No guitar from 0:35 to 1:29


(1:29-1:38)

e|-------------------------------------|        
B|-------------------------------------|        
G|-6--6--8--9--8--6--4--4--6-----------|        
D|-6--6--8--9--8--6--4--4--6--4--4--4--|(2X)
A|-4--4--6--7--6--4--2--2--4--4--4--4--|        
E|----------------------------2--2--2--|



Verse

(1:39-1:56)

e|-------------------------------------------------|
B|-------------------------------------------------|
G|-9--9--9--9--9--9--9--9--9--8--8--8--9--9--9--9--|
D|-x--x--x--x--x--x--x--x--x--x--x--x--x--x--x--x--|
A|-7--7--7--7--7--7--7--7--6--6--6--6--7--7--7--7--|
E|-------------------------------------------------|


Chorus

(1:57-2:14)

e|-------------------------|-------------------------|
B|-------------------------|-------------------------|
G|-9--9--9--9--8--8--9--9--|-9--9--9--9--8--8--8--8--|
D|-x--x--x--x--x--x--x--x--|-x--x--x--x--x--x--x--x--|
A|-7--7--7--7--6--6--7--7--|-7--7--7--7--6--6--6--6--|
E|-------------------------|-------------------------|



Bridge

(2:14-2:32)
 
e|------------------------------------------------------------------|
B|------------------------------------------------------------------|   
G|-6--6--8--9--8--6--4--4--6-------------6--6--4--6--6--4--6--6--4--|
D|-6--6--8--9--8--6--4--4--6--4--4--4----x--x--x--x--x--x--x--x--x--|(2x)
A|-4--4--6--7--6--4--2--2--4--4--4--4----4--4--2--4--4--2--4--4--2--|
E|----------------------------2--2--2-------------------------------|


No guitar from 2:32-2:49


Chorus

(2:49-3:07)

e|-------------------------|-------------------------|
B|-------------------------|-------------------------|
G|-9--9--9--9--8--8--9--9--|-9--9--9--9--8--8--8--8--|
D|-x--x--x--x--x--x--x--x--|-x--x--x--x--x--x--x--x--|
A|-7--7--7--7--6--6--7--7--|-7--7--7--7--6--6--6--6--|
E|-------------------------|-------------------------|



Outro

(3:07-end)

e|------------------------------------------------------------------|
B|------------------------------------------------------------------|   
G|-6--6--8--9--8--6--4--4--6-------------6--6--4--6--6--4--6--6--4--|
D|-6--6--8--9--8--6--4--4--6--4--4--4----x--x--x--x--x--x--x--x--x--|(2x)
A|-4--4--6--7--6--4--2--2--4--4--4--4----4--4--2--4--4--2--4--4--2--|
E|----------------------------2--2--2-------------------------------|
Suggest correction
Creating personal tab
Creating personal tab
You can edit any tab online and save it as your Personal.

You can edit, replace or remove any tab part or add personal notes – all changes will be seen only by you.

Personal tabs can be accessed anytime from any device, even offline.
Learn more »
comments
print report bad tab
2 comments total.
0 reply
Zexion1998 10 Apr 01, 2014 12:20 PM

At the first part of the intro, i play
e|-------------------------|
B|-------------------------|
G|-------------------------|
D|-------------------------|
A|-4-4-6-7-6-4-2-2-4-------|
E|-------------------2-2-4-|
^
^
With a 4 at the end instead of 3x 2, i think it sounds better..

0 reply
anieshgupta 10 Nov 15, 2014 01:03 AM

At the first part of the intro, i play
e|----------------------------|
B|----------------------------|
G|----------------------------|
D|----------------------------|
A|-4-4-6-7-6-4-----4----------|
E|-------------7-7---2--2--4--|

i think it sounds better..

guest
You may want to rate the tab now too:
select rating
Wanna post a correction for this tab? Suggest correction