Oops, an error
Loading. Please wait.
We have an official Castle Of Glass tab made by UG professional guitarists. Check out the tab »
×
2,476 views 24 this week
no commentswrite comment
1 2 3 4 5
x 5
add to favorites
×
Save as Personal and add changes to this tab that will be seen only by you. Learn more ›
×
You can save this tab as Personal to edit and correct it or add notes. All changes will be seen only by you. Learn more »
launch autoscroll
font size
0
reset
how to read this tab
guitar tuner
edit
Autoscroll
slow
fast
+/-
esc
set tempo
stop
_   _   _   _   _   _     _   _     _   _   _   _   _     _   _   _   _   _   _   _   _  
 / \ / \ / \ / \ / \ / \   / \ / \   / \ / \ / \ / \ / \   / \ / \ / \ / \ / \ / \ / \ / \ 
( C | a | s | t | l | e ) ( o | f ) ( g | l | a | s | s ) ( A | c | o | u | s | t | i | c )
 \_/ \_/ \_/ \_/ \_/ \_/   \_/ \_/   \_/ \_/ \_/ \_/ \_/   \_/ \_/ \_/ \_/ \_/ \_/ \_/ \_/ 
By Linkin park
Tabbed by Jack Morris

Hi all, I wrote this tab from Alex Andreyev’s cover of the song on YouTube – I tabbed out his video because no 
one else so far has done it, and it’s a cool version of an amazing song… Any criticisms, welcomed in the 
comments!

The strumming pattern can be figured out the from the song, or Alex Andreyev’s video on YouTube

Intro:

E|--------------------------|\    /E|-----------------------|
B|--------------------------| \  / B|-----------------------|
G|-6-6-8-9-8-6-4-4-6--------|  \/  G|-----------------------|
D|-6-6-8-9-8-6-4-4-6-4-4-4--|  /\  D|-7-7-7-7-7-7-9-9-9-9-9-|
A|-4-4-6-7-6-4-2-2-4-4-4-4--| /  \ A|-7-7-7-7-7-7-9-9-9-9-9-|
E|-------------------2-2-2--|/x3  \E|-5-5-5-5-5-5-7-7-7-7-7-|

Verse:
E|----------------------------------------------------------------|
B|----------------------------------------------------------------|
G|-6--------------------4-------------------6---------------------|
D|-6--------------------4-------------------6---------------------|
A|-4-(approx. 13 secs)--2-(approx. 4 secs)--4-(approx. 5 seconds)-|
E|----------------------------------------------------------------|

E|-4-------------------------------------------4---------------------|
B|-5-------------------------------------------5---------------------|
G|-6---------------------8---------------------6---------------------|
D|-6---------------------9---------------------6---------------------|
A|-4-(approx. 9 seconds)-9-(approx. 4 seconds)-4-(approx. 4 seconds)-|
E|-----------------------7-------------------------------------------|

Chorus:

E|-------------------------------|
B|-6-----------------------------|
G|-7--1--4~----------------------|
D|-7--2--4~----------------------|
A|-5--2--2~----------------------|
E|-------------------------------| 
          Let ring

E|--------------------------|--------------------------------------------|
B|--------------------------|-----5-------------------------5------------|
G|-6-6-8-9-8-6-4-4-6--------|-----6------------8------------6------------|
D|-6-6-8-9-8-6-4-4-6-4-4-4--|-----6------------9------------6------------|
A|-4-4-6-7-6-4-2-2-4-4-4-4--|-----4(8 Seconds)-9(4 seconds)-4(4 seconds)-|
E|-------------------2-2-2--|(x2)--------------7-------------------------|

E|-------------------------------|
B|-6-----------------------------|
G|-7--1--4--6--------------------|
D|-7--2--4--6--------------------|
A|-5--2--2--4--------------------|
E|-------------------------------| 


E|--------------------------|-------------|
B|--------------------------|-------------|
G|-6-6-8-9-8-6-4-4-6--------|-6-4-6-4-6-4-|
D|-6-6-8-9-8-6-4-4-6-4-4-4--|-6-4-6-4-6-4-|
A|-4-4-6-7-6-4-2-2-4-4-4-4--|-4-2-4-2-4-2-|
E|-------------------2-2-2--|-------------|

E|-------------------------------|
B|-6-----------------------------|
G|-7--1--4--6--------------------|
D|-7--2--4--6--------------------|
A|-5--2--2--4--------------------|
E|-------------------------------| x4


E|--------------------------|
B|--------------------------|
G|-6-6-8-9-8-6-4-4-6--------|
D|-6-6-8-9-8-6-4-4-6-4-4-4--|
A|-4-4-6-7-6-4-2-2-4-4-4-4--|
E|-------------------2-2-2--|



The ending is common sense, just play the ending to the last chorus until the end… If you listen to the song 
this will make much more sense…
Apologies for the tab towards the ends being a bit confusing, in my opinion it’s still readable when put 
next to the song.

            
            
Suggest correction
Creating personal tab
Creating personal tab
You can edit any tab online and save it as your Personal.

You can edit, replace or remove any tab part or add personal notes – all changes will be seen only by you.

Personal tabs can be accessed anytime from any device, even offline.
Learn more »
comments
print report bad tab
guest
You may want to rate the tab now too:
select rating
Wanna post a correction for this tab? Suggest correction