Oops, an error
Loading. Please wait.

Collision Course Tab

3,839 views 1 this week
3 commentsread comments
1 2 3 4 5
worth learning
x 12
add to favorites
launch autoscroll
font size
0
reset
how to read this tab
guitar tuner
Autoscroll
slow
fast
+/-
esc
set tempo
stop
Help us to improve Ultimate-Guitar.com Take our survey!
×
-----------------------------------------------------------------------------
              Collision Course - [LINKIN PARK] and Jay-Z
-----------------------------------------------------------------------------
* = Natural harmonic
|P.M.| = Palm mute
TUNING for ALL SONGS: Drop D, down one-half step
Low to high: Db Ab Db Gb Bb Eb

1. Dirt Off Your Shoulder/Lying from You

Verse (Jay-Z)
Eb|--------------------------------------------------------------------------|
Bb|--------------------------------------------------------------------------|
Gb|--------------------------------------------------------------------------|
Db|2--2-2----|7--7-7----0-0--0-0-0-0|2--2-2----|7-7-7-7-7--0-0--0-0-0-0|-----|
Ab|2--2-2----|5--5-5----0-0--0-0-0-0|2--2-2----|5-5-5-5-5--0-0--0-0-0-0|-----|
Db|2--2-2----|5--5-5----0-0--0-0-0-0|2--2-2----|5-5-5-5-5--0-0--0-0-0-0|-----|

Eb|--------------------------------------------------------------------------|
Bb|--------------------------------------------------------------------------|
Gb|--------------------------------------------------------------------------|
Db|2--2-2----|7--7-7----0-0--0-0-0-0|----------------------------------------|
Ab|2--2-2----|5--5-5----0-0--0-0-0-0|----------------------------------------|
Db|2--2-2----|5--5-5----0-0--0-0-0-0|----------------------------------------|
  Repeat this 5 times

Eb|--------------------------------------------------------------------------|
Bb|--------------------------------------------------------------------------|
Gb|--------------------------------------------------------------------------|
Db|7--7-7----|---------------------------------------------|x-x-x-x|---------|
Ab|5--5-5----|---------------------------------------------|x-x-x-x|---------|
Db|5--5-5----|---------------------------------------------|x-x-x-x|---------|
  [I come running back n****, cuz I'm straight with the Roc]

  Repeat 2nd line of Verse (Jay-Z) 4 times
  Repeat 1st line of Verse (Jay-Z)

Eb|--------------------------------------------------------------------------|
Bb|--------------------------------------------------------------------------|
Gb|--------------------------------------------------------------------------|
Db|2--2-2----|7--7-7----0-0--0-0-0-0|2--2-2----|7--7-7----|------------------|
Ab|2--2-2----|5--5-5----0-0--0-0-0-0|2--2-2----|5--5-5----|------------------|
Db|2--2-2----|5--5-5----0-0--0-0-0-0|2--2-2----|5--5-5----|------------------|

  Repeat 2nd line of Verse (Jay-Z) twice

Verse (Linkin Park)
Eb|--------------------------------------------------------------------------|
Bb|--------------------------------------------------------------------------|
Gb|--------------------------------------------------------------------------|
Db|2--2-2----|7--7-7----0-0--0-0-0-0|2--2-2----|7--7-7----0-0--0-0-0-0|------|
Ab|2--2-2----|5--5-5----0-0--0-0-0-0|2--2-2----|5--5-5----0-0--0-0-0-0|------|
Db|2--2-2----|5--5-5----0-0--0-0-0-0|2--2-2----|5--5-5----0-0--0-0-0-0|------|
  Repeat this 1 time

Eb|--------------------------------------------------------------------------|
Bb|--------------------------------------------------------------------------|
Gb|--------------------------------------------------------------------------|
Db|2--2-2----|7--7-7----0-0--0-0-0-0|2--2-2----|7-7-7-7-7-7-7--7-7-7-7|------|
Ab|2--2-2----|5--5-5----0-0--0-0-0-0|2--2-2----|5-5-5-5-5-7-7--7-7-7-7|------|
Db|2--2-2----|5--5-5----0-0--0-0-0-0|2--2-2----|5-5-5-5-5-7-7--7-7-7-7|------|
             [Trying to bend the....]          [Lying my way from.....]

Chorus (Linkin Park)
Eb|--------------------------------------------------------------------------|
Bb|--------------------------------------------------------------------------|
Gb|----11-11-11-11-11-7-7-7-7-9-9-9|-------------------------|---------------|
Db|2-2-----------------------------|7-7-7-7-7-7--0-0--0-0-0-0|---------------|
Ab|2-2--9--9--9--9--9-5-5-5-5-7-7-7|5-5-5-5-5-5--0-0--0-0-0-0|---------------|
Db|2-2-----------------------------|5-5-5-5-5-5--0-0--0-0-0-0|---------------|
      (These are 11s, not 1s)

Eb|--------------------------------------------------------------------------|
Bb|--------------------------------------------------------------------------|
Gb|------11-11-11-11-11-7-7-7-7-9-9-9|-------------------------|-------------|
Db|12-12-----------------------------|7-7-7-7-7-7--0-0--0-0-0-0|-------------|
Ab|10-10--9--9--9--9--9-5-5-5-5-7-7-7|7-7-7-7-7-7--0-0--0-0-0-0|-------------|
Db|10-10-----------------------------|7-7-7-7-7-7--0-0--0-0-0-0|-------------|
  Repeat Chorus, but the last bar goes....

Eb|--------------------------------------------------------------------------|
Bb|--------------------------------------------------------------------------|
Gb|--------------------------------------------------------------------------|
Db|7-7-7-7-7-7--7-7--7-7-7-7|7-7-7-7-7-7--0-0--x-x-x-x|----------------------|
Ab|7-7-7-7-7-7--7-7--7-7-7-7|7-7-7-7-7-7--0-0--x-x-x-x|----------------------|
Db|7-7-7-7-7-7--7-7--7-7-7-7|7-7-7-7-7-7--0-0--x-x-x-x|----------------------|

Bridge (Linkin Park)
Eb|--------------------------------------------------------------------------|
Bb|--------------------------------------------------------------------------|
Gb|--------------------------------------------------------------------------|
Db|0-22-1-0-3-2-1-0-66|0-22-1-0-3-2-1-0-66|----------------------------------|
Ab|0-22-1-0-3-2-1-0-66|0-22-1-0-3-2-1-0-66|----------------------------------|
Db|0-22-1-0-3-2-1-0-66|0-22-1-0-3-2-1-0-66|----------------------------------|
  (These are 2s and 6s, not 22s and 66s)

Eb|--------------------------------------------------------------------------|
Bb|--------------------------------------------------------------------------|
Gb|--------------------------------------------------------------------------|
Db|0-22-1-0-3-2-1-0-66|0-22-1-0-3-2-1-x-x-x-x|-------------------------------|
Ab|0-22-1-0-3-2-1-0-66|0-22-1-0-3-2-1-x-x-x-x|-------------------------------|
Db|0-22-1-0-3-2-1-0-66|0-22-1-0-3-2-1-x-x-x-x|-------------------------------|

  Repeat Bridge
  Repeat Chorus, but the last bar goes....

Eb|--------------------------------------------------------------------------|
Bb|--------------------------------------------------------------------------|
Gb|--------------------------------------------------------------------------|
Db|7-7-7-7-7-7--7-7--7-7-7-7|7-7-7-7-7-7--0-0-x-x-0|-------------------------|
Ab|7-7-7-7-7-7--7-7--7-7-7-7|7-7-7-7-7-7--0-0-x-x-0|-------------------------|
Db|7-7-7-7-7-7--7-7--7-7-7-7|7-7-7-7-7-7--0-0-x-x-0|-------------------------|
  END Dirt Off Your Shoulder/Lying from You

2. Big Pimpin'/Papercut
  No guitar parts for this song.

3. Jigga What/Faint
   **2 GUITARS**

[But I'll be here cuz you're all that i got]
Drum intro to "Faint"

Intro/Chorus Guitar 1
Eb|--------------------------------------------------------------------------|
Bb|--------------------------------------------------------------------------|
Gb|7-7-7-7|7-7-7-14-14-12-12-12|12-12-12-14-14-10-10-10|---------------------|
Db|--------------------------------------------------------------------------|
Ab|5-5-5-5|5-5-5-12-12-10-10-10|10-10-10-12-12--8--8--8|---------------------|
Db|--------------------------------------------------------------------------|
  Repeat 3x without first bar
  (These are 10s, 12s, and 14s)

Intro/Chorus Guitar 2
Eb|--------------------------------------------------------------------------|
Bb|--------------------------------------------------------------------------|
Gb|--------------------------------------------------------------------------|
Db|-------|0-0-0-0-0-0-0-0|5-5-5-5-5-5-5-5|8-8-8-8-8-8-8-8|5-5-5-7-7-3-3-3|--|
Ab|-------|0-0-0-0-0-0-0-0|3-3-3-3-3-3-3-3|8-8-8-8-8-8-8-8|5-5-5-7-7-3-3-3|--|
Db|-------|0-0-0-0-0-0-0-0|3-3-3-3-3-3-3-3|8-8-8-8-8-8-8-8|5-5-5-7-7-3-3-3|--|
  Repeat one time without first bar rest

Verse (Jay-Z) Guitar 1 (Guitar 2 rest)
Eb|--------------------------------------------------------------------------|
Bb|--------------------------------------------------------------------------|
Gb|--------------------------------------------------------------------------|
Db|0-0|----------|-----------------------------------------------------------|
Ab|0-0|----------|-----------------------------------------------------------|
Db|0-0|3-bar-rest|-----------------------------------------------------------|
  Repeat 3 times

Verse (Linkin Park) Guitar 1 (Guitar 2 rest)
Eb|--------------------------------------------------------------------------|
Bb|--------------------------------------------------------------------------|
Gb|--------------------------------------------------------------------------|
Db|0-0|----------|0-0|----------|0-0|----------|8-8----|10-10----|-----------|
Ab|0-0|----------|0-0|----------|0-0|----------|8-8----|10-10----|-----------|
Db|0-0|3-bar-rest|0-0|3-bar-rest|0-0|1-bar rest|8-8----|10-10----|-----------|
  (10s, not 1 & 0)

  Guitars 1 & 2 Repeat Chorus (repeat last chord as a full bar when done)

Bridge Guitar 1
Eb|--------------------------------------------------------------------------|
Bb|--------------------------------------------------------------------------|
Gb|--------------------------------------------------------------------------|
Db|0-7-3-2-3-2|000-7-3-2-3-2|------------------------------------------------|
Ab|0-7-3-2-3-2|000-7-3-2-3-2|------------------------------------------------|
Db|0-7-3-2-3-2|000-7-3-2-3-2|------------------------------------------------|
  Repeat 3 times

Bridge Guitar 2
Eb|--------------------------------------------------------------------------|
Bb|--------------------------------------------------------------------------|
Gb|--------------------------------------------------------------------------|
Db|----------5*|------------|------------------------------------------------|
Ab|--------------------------------------------------------------------------|
Db|--------------------------------------------------------------------------|
  Repeat 3 times

  Guitars 1 & 2 Repeat Chorus twice (w/o first bar)

Outro Guitar 1
Eb|--------------------------------------------------------------------------|
Bb|--------------------------------------------------------------------------|
Gb|10-10-10-10-10-8-8-8|-----------------------------------------------------|
Db|--------------------------------------------------------------------------|
Ab|-8--8--8--8--8-6-6-6|-----------------------------------------------------|
Db|--------------------------------------------------------------------------|

Outro Guitar 2
Eb|--------------------------------------------------------------------------|
Bb|--------------------------------------------------------------------------|
Gb|--------------------------------------------------------------------------|
Db|3-3-3-3-3-1-1-1|----------------------------------------------------------|
Ab|3-3-3-3-3-1-1-1|----------------------------------------------------------|
Db|3-3-3-3-3-1-1-1|----------------------------------------------------------|
  END Jigga What/Faint

4. Numb/Encore

Intro (Fast tremolo effect)
Eb|------------------------15|---------|---------15|---------|---------------|
Bb|15-15-15-15-15-15-18-15---|---------|15-18-15---|---------|---------------|
Gb|--------------------------------------------------------------------------|
Db|--------------------------------------------------------------------------|
Ab|--------------------------------------------------------------------------|
Db|--------------------------------------------------------------------------|

Eb|---------15-18-17|--------|---------18-17---|--------|--------------------|
Bb|15-18-15---------|--------|15-18-15-------18|--------|--------------------|
Gb|--------------------------------------------------------------------------|
Db|--------------------------------------------------------------------------|
Ab|--------------------------------------------------------------------------|
Db|--------------------------------------------------------------------------|
  Repeat this staff
  (These are all 15s, 17s, and 18s, not 1 & 5 etc.)

Verse/Chorus (Clean guitar)
Eb|10--------|6--------|-8-------|-8-------|---------------------------------|
Bb|--------------------------------------------------------------------------|
Gb|12--------|8--------|10-------|10-------|---------------------------------|
Db|12--------|8--------|-8-------|10-------|---------------------------------|
Ab|10--------|6--------|---------|-8-------|---------------------------------|
Db|--------------------------------------------------------------------------|
  Repeat once

Prechorus (Clean guitar)
Eb|6---------|-8-------|10-------|-8-------|---------------------------------|
Bb|--------------------------------------------------------------------------|
Gb|8---------|10-------|12-------|10-------|---------------------------------|
Db|8---------|10-------|12-------|-8-------|---------------------------------|
Ab|6---------|-8-------|10-------|---------|---------------------------------|
Db|--------------------------------------------------------------------------|
  Repeat once
  (Once again, 10s and 12s, not 1 & 0 etc.)

  Repeat Chorus (remember to repeat)
  Repeat Verse twice (DO NOT repeat on the second time)
  Repeat Prechorus (remember to repeat)
  Repeat Verse
  Repeat Prechorus
  Repeat Chorus twice

Outro (Fast tremolo effect)
Eb|---------15-18-17-17-17-17-17|--------------------------------------------|
Bb|15-18-15---------------------|--------------------------------------------|
Gb|--------------------------------------------------------------------------|
Db|--------------------------------------------------------------------------|
Ab|--------------------------------------------------------------------------|
Db|--------------------------------------------------------------------------|
  END Numb/Encore

5. Izzo/In the End
  No guitar parts for this song.

6. Points of Authority/99 Problems/One Step Closer

Intro/Verse (Points of Authority)
Eb|--------------------------------------------------------------------------|
Bb|--------------------------------------------------------------------------|
Gb|--------------------------------------------------------------------------|
Db|2-2-x-x-x-0-2-2-3-0|2-2-x-x-x-2-0-3|2-2-x-x-x|0-2-2-3-0-2-2-x-x|----------|
Ab|2-2-x-x-x-0-2-2-3-0|2-2-x-x-x-2-0-3|2-2-x-x-x|0-2-2-3-0-2-2-x-x|----------|
Db|2-2-x-x-x-0-2-2-3-0|2-2-x-x-x-2-0-3|2-2-x-x-x|0-2-2-3-0-2-2-x-x|----------|

  Repeat first 2 bars of Intro/Verse (Points of Authority) 10 times

Chorus 1 (Points of Authority)
Eb|--------------------------------------------------------------------------|
Bb|--------------------------------------------------------------------------|
Gb|--------------------------------------------------------------------------|
Db|2--------|3--------|2--------|3-------2-0-3|------------------------------|
Ab|2--------|3--------|2--------|3-------2-0-3|------------------------------|
Db|2--------|3--------|2--------|3-------2-0-3|------------------------------|

  Repeat first 2 bars of Verse (Points of Authority) 3 times
  Repeat 1st bar of Verse (Points of Authority) once
  Repeat 3rd bar of Verse (Points of Authority) once
  Repeat first 2 bars of Verse (Points of Authority) 8 times

Chorus 2 (Points of Authority)
Eb|--------------------------------------------------------------------------|
Bb|--------------------------------------------------------------------------|
Gb|--------------------------------------------------------------------------|
Db|2-------|3--------|2--------|3--------|2--------|3--------|2--------|-----|
Ab|2-------|3--------|2--------|3--------|2--------|3--------|2--------|-----|
Db|2-------|3--------|2--------|3--------|2--------|3--------|2--------|-----|

Intro (One Step Closer)
Eb|--------------------------------------------------------------------------|
Bb|--------------------------------------------------------------------------|
Gb|--------------------------------------------------------------------------|
Db|--------------------------------------------------------------------------|
Ab|-------7|--------|-------7|--------|-------7|--------|-------7|--------|--|
Db|0-5*-7*-|8-7*-0-3|0-5*-7*-|8-7*-0-3|0-5*-7*-|8-7*-0-3|0-5*-7*-|8-7*-0-3|--|

Verse (One Step Closer)
Eb|--------------------------------------------------------------------------|
Bb|--------------------------------------------------------------------------|
Gb|------9-9-9|------5-5-5|------9-9-9|------5-5-5|--------------------------|
Db|0-0--------|8-7--------|0-0--------|8-7--------|--------------------------|
Ab|0-0---7-7-7|8-7---3-3-3|0-0---7-7-7|8-7---3-3-3|--------------------------|
Db|0-0-x------|8-7-x------|0-0-x------|8-7-x------|--------------------------|

  Repeat Verse (One Step Closer) 3 times

Prechorus 1 (One Step Closer)
Eb|--------------------------------------------------------------------------|
Bb|--------------------------------------------------------------------------|
Gb|--------------------------------------------------------------------------|
Db|5-5-x-x-x|5-5-x-x-x|5-5-x-x-x|5-5-x-x-x|----------------------------------|
Ab|5-5-x-x-x|5-5-x-x-x|5-5-x-x-x|5-5-x-x-x|----------------------------------|
Db|5-5-x-x-x|5-5-x-x-x|5-5-x-x-x|5-5-x-x-x|----------------------------------|

  Repeat Prechorus 1 (One Step Closer)
  Repeat Verse (One Step Closer) twice

Prechorus 2 (One Step Closer)
Eb|--------------------------------------------------------------------------|
Bb|--------------------------------------------------------------------------|
Gb|--------------------------------------------------------------------------|
Db|5-5-x-x-x|5-5-x-x-x|5-5-x-x-x|5-5-x-x-x|----------------------------------|
Ab|5-5-x-x-x|5-5-x-x-x|5-5-x-x-x|5-5-x-x-x|----------------------------------|
Db|5-5-x-x-x|5-5-x-x-x|5-5-x-x-x|5-5-x-x-x|----------------------------------|

Eb|--------------------------------------------------------------------------|
Bb|--------------------------------------------------------------------------|
Gb|---------|---------|---------|----2*------|-------------------------------|
Db|5-5-x-x-x|5-5-x-x-x|5-5-x-x-x|5-5---2*2*2*|-------------------------------|
Ab|5-5-x-x-x|5-5-x-x-x|5-5-x-x-x|5-5---------|-------------------------------|
Db|5-5-x-x-x|5-5-x-x-x|5-5-x-x-x|5-5---------|-------------------------------|

Chorus (One Step Closer)
Eb|--------------------------------------------------------------------------|
Bb|--------------------------------------------------------------------------|
Gb|--------------------------------------------------------------------------|
Db|0-0--12-12-12-12|10-10--7-7-7-7|10-10--5-5-5-5|7-7--3-3-3-3|--------------|
Ab|0-0--12-12-12-12|10-10--7-7-7-7|-8--8--5-5-5-5|7-7--1-1-1-1|--------------|
Db|0-0--12-12-12-12|10-10--7-7-7-7|-8--8--5-5-5-5|7-7--1-1-1-1|--------------|
  (One more time, 12s and 10s, not 1 & 2 etc.)

  Repeat Chorus (One Step Closer) 3 times

Outro
Eb|--------------------------------------------------------------------------|
Bb|--------------------------------------------------------------------------|
Gb|--------------------------------------------------------------------------|
Db|3-3-3-3-3-3-3-3|----------------------------------------------------------|
Ab|1-1-1-1-1-1-1-1|----------------------------------------------------------|
Db|1-1-1-1-1-1-1-1|----------------------------------------------------------|

  Repeat Intro (One Step Closer)

Bridge
Eb|--------------------------------------------------------------------------|
Bb|--------------------------------------------------------------------------|
Gb|--------------------------------------------------------------------------|
Db|1-0-x-x-0-0-3-1-0-6-0-3|------------|1-0-x-x-0-0-3-1-0-1-1-1|-------------|
Ab|1-0-x-x-0-0-3-1-0-6-0-3|Repeat-twice|1-0-x-x-0-0-3-1-0-1-1-1|-------------|
Db|1-0-x-x-0-0-3-1-0-6-0-3|------------|1-0-x-x-0-0-3-1-0-1-1-1|-------------|
                                                         | P.M.|
  Repeat 1st bar of Bridge 4 times
  Repeat Chorus (One Step Closer) 4 times
  Repeat Outro
  END Points of Authority/99 Problems/One Step Closer
Suggest correction new What's this?
You can suggest a correction to this tab. Community and Mods will review your correction and vote to approve or reject it.
comments
print report bad tab
3 comments total.
0 reply
Vortex_uk 207 wrote on February 8 2005, 12:00 am

Any please tell me how to tune my guitar to Db Ab Db Gb Bb eB?

0 reply
HH_Emo_666 924 wrote on July 31 2006, 09:47 am

u just tune it down half way?

0 reply
HH_Emo_666 924 wrote on March 25 2007, 02:49 pm

o and plus u put drop E down a whole

guest
You may want to rate the tab now too:
select rating
Please do not post tabs as comments. Select "correction" instead!