Oops, an error
Loading. Please wait.

Crawling Bass Tab

version 6
13,394 views 24 this week
10 commentsread comments
1 2 3 4 5
x 16
add to favorites
launch autoscroll
font size
0
reset
guitar tuner
Autoscroll
slow
fast
+/-
esc
set tempo
stop
Help us to improve Ultimate-Guitar.com Take our survey!
×
-----------------------------------------------------------------------------
			     Crawling - Linkin Park
-----------------------------------------------------------------------------

Tabbed By: dorris
e-mail: Cleandirt2003@hotmail.com

Comment: i got this from a song book so i think its right, sounds right to me! 

Intro: 00:14   
|--------------------------------------------------------------------------|
|----------2----------2----------------------------------------------------|
|---0-----------2-----------4-------2--------------------------------------|
|------------------------------------------0-------------------------------|
|--------------------------------------------------------------------------|

Chorus:      crawling in my skin, these wounds they will not heal.
|--------------------------------------------------------------------------|
|--------------------------------------------------------------------------|
|--------0-----------------------------------------------------------------|
|--------------0------7\4--------------------------------------------------|
|---2----------------------------------------------------------------------|

      fear is how i fall  confusing what is real, oh,
|--------------------------------------------------------------------------|
|--------------------------------------------------------------------------|
|--------0-----------------------------------------------------------------|
|--------------0------7\4--------------------------------------------------|
|----2---------------------------------------------------------------------|

|--------------------------------------------------------------------------|
|--------------------------------------------------------------------------|
|--------0-------------2---------------------------------------------------|
|--------------0-----------------------------------------------------------|
|----2---------------------------------------------------------------------|

Verse:theres something inside that pulls beneath the surface consuming....
|--------------------------------------------------------------------------|
|--------------------------------------------------------------------------|
|------------------0--------------------------2----------------------------|
|-------------------------------0--------------------------4---------------|
|----2---------------------------------------------------------------------|

this lack of self control i fear is never ending controling
|--------------------------------------------------------------------------|
|--------------------------------------------------------------------------|
|--------------------------------0-----------------------------------------|
|------------------------------------------------------------0-------------|
|-----2--------------------------------------------------------------------|

i cant seem, to find my self again my walls are closing in
|--------------------------------------------------------------------------|
|-----------------------------------2--------------------2-----------------|
|-----2-----------------------0---------------2----------------------------|
|------------------------4-------------------------------------------------|
|--------------------------------------------------------------------------|

(without a sense of confidence im convinced theres to much..............
|--------------------------------------------------------------------------|
|--------------------------------------------------------------------------|
|------4-----------------2--------------------0-------------------2--------|
|-----------------------------0---------4----------------------------------|
|--------------------------------------------------------------------------|

so insecuuuuuuuuuuuuuuuuuuuuuuuuuuuuuuuuuuuuuuure
|--------------------------------------------------------------------------|
|----------------2---------------------------------------------------------|
|-----2-----------------------4-----------2--------------------------------|
|--------------------------------------------------0-----------4-----------|
|--------------------------------------------------------------------------|

Chorus: crawling in my skin these wounds they will not heal.........
|--------------------------------------------------------------------------|
|--------------------------------------------------------------------------|
|----------0---------------------------------------------------------------|
|-----------------0-------7\4----------------------------------------------|
|---2----------------------------------------------------------------------|

confusing what is real. discomefort endlessly has
|--------------------------------------------------------------------------|
|--------------------------------------------------------------------------|
|----------0---------------------------------------------------------------|
|-----------------0------7\4-----------------------------------------------|
|---2----------------------------------------------------------------------|

pulled it self upon me disracting reacting against my will i stand be-
|--------------------------------------------------------------------------|
|--------------------------------------------------------------------------|
|-------------0----------------2-------------------------------------------|
|--------------------0-----------------------------------------------------|
|----2--------------------------------2------------------------------------|

side my own reflection, its haunting how i cant seem 
|--------------------------------------------------------------------------|
|--------------------------------------------------------------------------|
|-----0-----------------------------------2--------------------------------|
|-----------------------0--------------------------------------------------|
|-----------------------------------------------------2--------------------|

to find my self again my walls are closing in
|--------------------------------------------------------------------------|
|-----------------------2------------------------------2-------------------|
|-----0--------------------------------2-----------------------------------|
|--------------------------------------------------------------------------|
|--------------------------------------------------------------------------|

(without a sense of confidence im convinced theres 2 much pressure 2 take)  
|--------------------------------------------------------------------------|
|--------------------------------------------------------------------------|
|-----4----------------2---------------------------0--------------2--------|
|----------------------------0-----------4---------------------------------|
|--------------------------------------------------------------------------|

so insecuuuuuuuuuuuuuuuuuuuuuuuuuuuuuuuuuuuuuuuuure
|--------------------------------------------------------------------------|
|----------------2---------------------------------------------------------|
|---2------------------------4-------2-------------------------------------|
|------------------------------------------------0-----------0-------------|
|--------------------------------------------------------------------------|

chorus: crawling in my skin these wounds they will not heal fear is how i
|--------------------------------------------------------------------------|
|--------------------------------------------------------------------------|
|-----------------0--------------------------------------------------------|
|--------------------------0----------7\4----------------------------------|
|------2-------------------------------------------------------------------|

fall, confusing what is real crawling in  my skin these
|--------------------------------------------------------------------------|
|--------------------------------------------------------------------------|
|-----------0--------------------------------6-6--4------------------------|
|------------------0--------7\4--------------------------4----5------------|
|---2-------------------------------2--------------------------------------|

wounds they will not heal fear is how i fall confusing                con-
|--------------------------------------------------------------------------|
|--------------------------------------------------------------------------|
|----------------------------------------0---------------------------------|
|--0-----------------7\4--------------------------0------------------------|
|----------------------------2---------------------------------------------|

fusing what is real(theres sumthing inside me tht pulls beneath the surface)
|--------------------------------------------------------------------------|
|--------------------------------------------------------------------------|
|--------------------------------0-----------------------------------------|
|----7\4----------------------------------------0--------------------------|
|--------------2-----------------------------------------------------------|

confusing what is real (this lack of self control i fear is never ending)
|--------------------------------------------------------------------------|
|--------------------------------------------------------------------------|
|-----------------------------6--4-4---------------------------------------|
|-----7\---7------4--------------------4--5--------------------------------|
|----------------------2---------------------------------------------------|


confusing what is reeeeeeeeeeeeeeeeeeeeeeeeeeeeeeeeeeeeeeeeeeeeeeeeeeeal
|--------------------------------------------------------------------------|
|--------------------------------------------------------------------------|
|--------------------------------------------------------------------------|
|----0-----------7\---------------7\-------4-------------------------------|
|--------------------------------------------------------------------------|

THATS ALL FOLKS (remember to rate!!!)

| /  slide up
| \  slide down
| h  hammer-on
| p  pull-off
| ~  vibrato
| +  harmonic
| x  Mute note
=============================================================================
Suggest correction
comments
print report bad tab
10 comments total. Showing first comments.
0 reply
bass,guitarking 10 Jan 01, 2004 12:00 AM

because u can get 5 string basses ***

0 reply
bass,guitarking 10 Jan 01, 2004 12:00 AM

korn, limp bizkit and cradle of filth have them and probably more

-1 reply
bass,guitarking 10 Jan 01, 2004 12:00 AM

u dont no jack about basses do u ***?

guest
You may want to rate the tab now too:
select rating
Wanna post a correction for this tab? Suggest correction