Oops, an error
Loading. Please wait.

Crawling Tab

1,616 views 1 this week
2 commentsread comments
1 2 3 4 5
x 6
add to favorites
launch autoscroll
font size
0
reset
how to read this tab
guitar tuner
Autoscroll
slow
fast
+/-
esc
set tempo
stop
Help us to improve Ultimate-Guitar.com Take our survey!
×
Author
This is my first tab.
 
But this Tab is iight!!

INTRO:
e|------13--13-----------------------------------------|
B|---8---------10--13--11--10--11----------------------|
G|-----------------------------------------------------|
D|-----------------------------------------------------|
A|-----------------------------------------------------|
E|-----------------------------------------------------|
(play ^ this a few times)

Chords For Chorus
e|---------------0-------------------------------------
B|---------------0-------------------------------------
G|----10----6----1----8--------------------------------
D|----11----7----2----9--------------------------------   
A|----11----7----2----9--------------------------------
E|----9-----5----0----7--------------------------------

e|-------------------------------
B|-------------------------------
G|-------------------------------
D|-------------------------------
A|----11----7----2----9----------
E|----9-----5----0----7----------

Thats it!!
Suggest correction
comments
print report bad tab
2 comments total.
0 reply
De Armond 0 Oct 08, 2002 12:00 AM

Correcting Intro!!!

The Shane Way
E|------13--13--10-------------------|
B|---8-------------13--11--10--11----|
G|-----------------------------------|
D|-----------------------------------|
A|-----------------------------------|
E|-----------------------------------|

0 reply
bandrez 16 Jan 13, 2007 11:22 AM

AWESOME!

guest
You may want to rate the tab now too:
select rating
Wanna post a correction for this tab? Suggest correction