Oops, an error
Loading. Please wait.
We have an official Crawling tab made by UG professional guitarists. Check out the tab »
×

Crawling Tab

version 9
version 9

Whole song

37 views 3 this week
no commentswrite comment
1 2 3 4 5
1 last vote to show rating
add to favorites
launch autoscroll
font size
0
reset
how to read this tab
guitar tuner
backing track
0:00
0:00
×
Best way to learn
"Crawling"
Autoscroll
slow
fast
+/-
esc
set tempo
stop
Author
Difficulty
Tuning
novice
C# G# C# F# A# D#
About this tab version
Since the chorus of this song actually is played with 2 guitars, this tab shows you a (not quite correct) way to play it with just one. Was this info helpful? Yes No
Artist: Linkin Park
Title: Crawling
Tunning:Dropped C# (Dropped D one half step down)
C# G# C# F# A# D#

Intro: Clean Distortion (actually played by the DJ)
D#|----20--17----------------------------|x
A#|------------20-18-17-18---------------|x
F#|-19-----------------------------------|x
C#|--------------------------------------|x
G#|--------------------------------------|x
C#|--------------------------------------|x

Chorus: Heavy Distortion
D#|-----------------------|-----------1------0-----------------------------|x
A#|-----------------------|-----------x------x-----------------------------|x
F#|-----------------------|11---------x------x-----------------------------|x
C#|-----------------------|0----10----3-----10-----------------------------|x  
G#|-----------------------|0----8-----3-----10-----------------------------|x
C#|10+---10+-10+--10+-10+-|0----8-----3-----10-----------------------------|x

***********************************
Effects Legend: 
| x   deadnote 
| +   harmonic
***********************************
Suggest correction
Give kudos to tab author, rate the tab!
1 2 3 4 5
comments
print report bad tab
guest
You may want to rate the tab now too:
select rating
Wanna post a correction for this tab? Suggest correction