Oops, an error
Loading. Please wait.

Dont Stay Bass Tab

version 3
version 3
2,046 views 1 this week
no commentswrite comment
1 2 3 4 5
x 3
add to favorites
launch autoscroll
font size
0
reset
guitar tuner
Autoscroll
slow
fast
+/-
esc
set tempo
stop
Help us to improve Ultimate-Guitar.com Take our survey!
×
Author
Song-Don't Stay
Artist-Linkin Park
Album-Meteora
Tabbed by:Oldreich87

Guitar intro


Intro/Verse
G|------------------------------------|
D|------------------------------------|
A|------------------------------------|
E|------------------------------------|
B|--0-0-0-7-3--5-5-5-8-7--------------|

Chorus:
G|------------------------------------|
D|------------------------------------|
A|------------------------------------|
E|------------------------------------|
B|-0~--0-7-8-10-5~--5-7-3-1--0~-------|

Verse: 
G|------------------------------------|
D|------------------------------------|
A|------------------------------------|
E|------------------------------------|
B|--0-0-0-7-3--5-5-5-8-7--------------| x4

Bridge:
G|------------------------------------|
D|------------------------------------|
A|----------(0-0-0-0-0--3--3--3)------|              
E|------------------------------------|
B|-0-0-1-0----------------------------| x8

End
G|--------------------------------------|
D|--------------------------------------|
A|--------------------------------------|
E|--------------------------------------|
B|-1-1-1--1-1-1--1-1-1--1-1-1-1-1-1-1-1-|

Suggest correction
Give kudos to tab author, rate the tab!
1 2 3 4 5
comments
print report bad tab
guest
You may want to rate the tab now too:
select rating
Wanna post a correction for this tab? Suggest correction