Oops, an error
Loading. Please wait.

Dont Stay Bass Tab

version 4
version 4
2,090 views 9 this week
no commentswrite comment
1 2 3 4 5
please rate
add to favorites
launch autoscroll
font size
0
reset
guitar tuner
Autoscroll
slow
fast
+/-
esc
set tempo
stop
Help us to improve Ultimate-Guitar.com Take our survey!
×
Author
Difficulty
Tuning
novice
D A D G B E
Don't Stay bass tab for 4-String bass, I'm not sure about the 2 on the D-String in
Verse 2 it might be wrong but other than that I'm pretty sure its all right.

Intro/verse
G|-----------------------|
D|-----------------------|
A|222--------------------|
D|----4-000--222-5-444x4-|

Stay Away from me...!
A|3-3-3-33

Verse 1
G|-----------------------|
D|-----------------------|
A|222--------------------|
D|----4-000--222-5-444x4-|

Need you to go!...
A|3-3-3-33

Verse 2
G|------------------------|
D|------------------------|
A|2-------------------3-2-|
D|--2-4-5-7-2--02-4-0-----|x4

Verse 1
G|-----------------------|
D|-----------------------|
A|222--------------------|
D|----4-000--222-5-444x2-|

Screaming at myself!...
A|3-3-3-33

Verse 1
G|-----------------------|
D|-----------------------|
A|222--------------------|
D|----4-000--222-5-444x4-|

Need to be alone!...
A|33-3-333x2

Verse 2
G|------------------------|
D|------------------------|
A|2-------------------3-2-|
D|---2-4-5-7-2--02-4-0----|x4

I don't need you anymore!...
2223-222x8

Wasting me away!
A|33-3-333x3 then A|33333333
Suggest correction
Give kudos to tab author, rate the tab!
1 2 3 4 5
comments
print report bad tab
guest
You may want to rate the tab now too:
select rating
Please do not post tabs as comments. Select "correction" instead!