Oops, an error
Loading. Please wait.

Dont Stay Bass Tab

version 5
version 5
698 views 1 this week
1 commentread comment
1 2 3 4 5
2 more votes to show rating
add to favorites
launch autoscroll
font size
0
reset
guitar tuner
Autoscroll
slow
fast
+/-
esc
set tempo
stop
Help us to improve Ultimate-Guitar.com Take our survey!
×
Author
Difficulty
novice
-------------------------------------------------------------------------------
			     Don't Stay - Linkin Park
-------------------------------------------------------------------------------

Tabbed By : LordShado(Brian Norman)
e-mail: superambush@yahoo.com

Tuning: BEADG(5-String Bass)

Intro/verse
G|----------------------|
D|----------------------|
A|----------------------|
D|----4-000--222-5-444--|
B|000-------------------|x4

Stay Away from me...!
B|1-1-1-11

Verse 1
G|----------------------|
D|----------------------|
A|----------------------|
D|----4-000--222-5-444--|
B|000-------------------|x4

Need you to go!...
B|1-1-1-11

Verse 2
G|-------------------------|
D|-------------------------|
A|-------------------------|
D|----4-5-7-------4--------|
B|0-0-------5--35---3-1-0--| x4

Verse 1
G|----------------------|
D|----------------------|
A|----------------------|
D|----4-000--222-5-444--|
B|000-------------------|x2

Screaming at myself!...
B|1-1-1-11

Verse 1
G|----------------------|
D|----------------------|
A|----------------------|
D|----4-000--222-5-444--|
B|000-------------------|x4

Need to be alone!...
B|1-1-1-11x2

Verse 2
G|-----------------------|
D|-----------------------|
A|-----------------------|
D|----4-5-7-------4------|
B|0-0-------5--35---3-1--| x4

I don't need you anymore!...
B|0001-000x8

After the 4th time
B|1/12-0

Waisting me away!
B|11-1-111x3 then B|11111111

Verse 2
G|-------------------------|
D|-------------------------|
A|-------------------------|
D|----4-5-7-------4--------|
B|0-0-------5--35---3-1-0--| x4

Verse 1
G|----------------------|
D|----------------------|
A|----------------------|
D|----4-000--222-5-444--|
B|000-------------------|x4

Outro/End
B|11-1-111

| /  slide up
| \  slide down
| h  hammer-on
| p  pull-off
| ~  vibrato
| +  harmonic
| x  Mute note
===============================================================================
Suggest correction
Give kudos to tab author, rate the tab!
1 2 3 4 5
comments
print report bad tab
1 comment total.
0 reply
790FX 715 Jul 29, 2016 07:52 AM

The best bass tab of "Don't Stay" here. But the down tuned E-string isn't necessary. You can play this song easy on a 5 string standard tuning like this.
Verse:
E|------2---------------3---2-2-|
B|0-0-0-----3-3-3-5-5-5---------|
Chorus:
E|---------------------------|-------------------------|
B|0-----0---7---8---10---5---|---3-5---7-----3---1---0-|

guest
You may want to rate the tab now too:
select rating
Wanna post a correction for this tab? Suggest correction