Oops, an error
Loading. Please wait.

Dont Stay Tab

version 6
version 6
2,404 views 1 this week
2 commentsread comments
1 2 3 4 5
2 more votes to show rating
add to favorites
launch autoscroll
font size
0
reset
how to read this tab
guitar tuner
Autoscroll
slow
fast
+/-
esc
set tempo
stop
Help us to improve Ultimate-Guitar.com Take our survey!
×
Difficulty
novice
Linkin Park - Don´t Stay

Tabbed by Norfindel@hotmail.com

Intro

e-----------------------------|
B-----------------------------|
G-----------------------------|
D--------4-0-0-2-2-2-5-4-(4)--|    x4
A--2-2-2----------------------|
E-----------------------------|


e-----------------------------|
B-----------------------------|
G-----------------------------|
D--------4-0-0-2-2-2-5-4-(4)--|   x4
A--2-2-2-4-0-0-2-2-2-5-4-(4)--|
E--2-2-2----------------------|

Verse 1

e-----------------------------|
B-----------------------------|
G-----------------------------|
D--------4-0-0-2-2-2-5-4-(4)--|    x3
A--2-2-2----------------------|
E-----------------------------|

e-----------------------------|
B-----------------------------|
G-----------------------------|
D--------4-0------------------|
A--2-2-2-----3-3-3-xxx--------|
E------------3-3-3-xxx--------|

e-----------------------------|
B-----------------------------|
G-----------------------------|
D--------4-0-0-2-2-2-5-4-(4)--|   x3
A--2-2-2-4-0-0-2-2-2-5-4-(4)--|
E--2-2-2----------------------|

e-----------------------------|
B-----------------------------|
G-----------------------------|
D--------4-0------------------|
A--2-2-2-4-0--3-3-3-xxx-------|
E--2-2-2------3-3-3-xxx-------|

Chorus

e------------------------------------------|
B------------------------------------------|
G------------------------------------------|
D---------4----6----7---2--2---4--0--------|   x4
A--2--2---4----6----7---0--0---4--0---3--2-|
E--2--2--(2)--(4)--(5)--0--0--(2)-----3--2-|

e-----------------------------|
B-----------------------------|
G-----------------------------|
D--------4-0-0-2-2-2-5-4-(4)--|   x2
A--2-2-2-4-0-0-2-2-2-5-4-(4)--|
E--2-2-2----------------------|

Verse 2

e-----------------------------|
B-----------------------------|
G-----------------------------|
D--------4-0-0-2-2-2-5-4-(4)--|    x3
A--2-2-2----------------------|
E-----------------------------|

e-----------------------------|
B-----------------------------|
G-----------------------------|
D--------4-0------------------|
A--2-2-2-----3-3-3-xxx--------|
E------------3-3-3-xxx--------|

e-----------------------------|
B-----------------------------|
G-----------------------------|
D--------4-0-0-2-2-2-5-4-(4)--|   x3
A--2-2-2-4-0-0-2-2-2-5-4-(4)--|
E--2-2-2----------------------|

e-----------------------------|
B-----------------------------|
G-----------------------------|
D--------4-0------------------|
A--2-2-2-4-0--3-3-3-xxx-------|
E--2-2-2------3-3-3-xxx-------|

Chorus

e------------------------------------------|
B------------------------------------------|
G------------------------------------------|
D---------4----6----7---2--2---4--0--------|   x4
A--2--2---4----6----7---0--0---4--0---3--2-|
E--2--2--(2)--(4)--(5)--0--0--(2)-----3--2-|

e-----------------------------|
B-----------------------------|
G-----------------------------|
D--------4-0-0-2-2-2-5-4-(4)--|   x2
A--2-2-2-4-0-0-2-2-2-5-4-(4)--|
E--2-2-2----------------------|

Bridge 1

e-----------------------------|
B-----------------------------|
G-----------------------------|
D--------4-0-0-2-2-2-5-4-(4)--|    x4
A--2-2-2----------------------|
E-----------------------------|

Bridge 2

e-----------------------------------|
B-----------------------------------|
G-----------------------------------|
D--------------7--7--7--7--7--10----|    x3
A--2-3-2-3-2---7--7--7--7--7--10----|
E--2-2-2-3-2---5--5--5--5--5---8----|

e-----------------------------------|
B-----------------------------------|
G-----------------------------------|
D--------------7--7--7--7--7--------|
A--2-3-2-3-2---7--7--7--7--7--------|
E--2-2-2-3-2---5--5--5--5--5--------|

e-----------------------------------|
B-----------------------------------|
G-----------------------------------|
D--------------7--7--7--7--7--10----|    x3
A--2-3-2-3-2---7--7--7--7--7--10----|
E--2-2-2-3-2---5--5--5--5--5---8----|

e----------------------------------------|
B----------------------------------------|
G----------------------------------------|
D----------------------------------------|
A--2-3-2-3-2--3-3-3-xxx-3-3-3-xxx-3-3-3--|
E--2-2-2-3-2--3-3-3-xxx-3-3-3-xxx-3-3-3--|

Final Chorus

e------------------------------------------|
B------------------------------------------|
G------------------------------------------|
D---------4----6----7---2--2---4--0--------|   x4
A--2--2---4----6----7---0--0---4--0---3--2-|
E--2--2--(2)--(4)--(5)--0--0--(2)-----3--2-|

e-----------------------------|
B-----------------------------|
G-----------------------------|
D--------4-0-0-2-2-2-5-4-(4)--|   x3
A--2-2-2-4-0-0-2-2-2-5-4-(4)--|
E--2-2-2----------------------|

e-----------------------------|
B-----------------------------|
G-----------------------------|
D--------4-0------------------|
A--2-2-2-4-0--3-3-3-xxx-------|
E--2-2-2------3-3-3-xxx-------|


Quimera Power!!! Lora del Rio (Sevilla) Spain
Suggest correction
Give kudos to tab author, rate the tab!
1 2 3 4 5
comments
print report bad tab
2 comments total.
0 reply
Burswood 30 Jan 25, 2007 10:56 PM

Speak english bitch

0 reply
HxG 48 Aug 03, 2009 03:41 AM

Chorus should be at least

e------------------------------------------|
B------------------------------------------|
G------------------------------------------|
D---------4----5----7---2--2---4--0--------| x4
A--2--2---4----5----7---0--0---4--0---3--2-|
E--2--2--(2)--(3)--(5)--0--0--(2)-----3--2-|

guest
You may want to rate the tab now too:
select rating
Wanna post a correction for this tab? Suggest correction