Oops, an error
Loading. Please wait.

Dont Stay Tab

version 7
version 7
24,256 views 21 this week
2 commentsread comments
1 2 3 4 5
x 10
add to favorites
launch autoscroll
font size
0
reset
how to read this tab
guitar tuner
backing track
0:00
0:00
×
Best way to learn
"Dont Stay"
Autoscroll
slow
fast
+/-
esc
set tempo
stop
Difficulty
Tuning
novice
A# F A# D# G C
Band:Linkin Park
Song:Don't Stay
Tuning: Bb F Bb Eb G C
Tabbed by:Justin Barrera
E-Mail:Jamming_out_rocker@yahoo.com
This is 100% correct...

[Intro Part 1]
[Guitar 1]
C |------------------------------|
G |------------------------------|
D#|------------------------------|
A#|---0-0-0--7-3-3--5-5-5--8-7---|
F |---0-0-0--7-3-3--5-5-5--8-7---|
A#|---0-0-0--7-3-3--5-5-5--8-7---|
                                (x4)
[Guitar 2]                
C |------------------------------|
G |------------------------------|
D#|------------------------------|
A#|------------------------------|
F |------------------------------|
A#|------------------------------|

[Intro Part 2]
[Guitar 1]
C |------------------------------|
G |------------------------------|
D#|------------------------------|
A#|---0-0-0--7-3-3--5-5-5--8-7---|
F |---0-0-0--7-3-3--5-5-5--8-7---|
A#|---0-0-0--7-3-3--5-5-5--8-7---|
                              (x4)
[Guitar 2]                 
C |------------------------------|
G |------------------------------|
D#|------------------------------|
A#|---0-0-0--7-3-3--5-5-5--8-7---|
F |---0-0-0--7-3-3--5-5-5--8-7---|
A#|---0-0-0--7-3-3--5-5-5--8-7---|

[Verse 1]
[Guitar 1 Only]
C |------------------------------|
G |------------------------------|
D#|------------------------------|
A#|---0-0-0--7-3-3--5-5-5--8-7---|
F |---0-0-0--7-3-3--5-5-5--8-7---|
A#|---0-0-0--7-3-3--5-5-5--8-7---|
       Sometimes     I

C |------------------------------|
G |------------------------------|
D#|------------------------------|
A#|---0-0-0--7-3-3--5-5-5--8-7---|
F |---0-0-0--7-3-3--5-5-5--8-7---|
A#|---0-0-0--7-3-3--5-5-5--8-7---|
 Need to remember just to breath

C |------------------------------|
G |------------------------------|
D#|------------------------------|
A#|---0-0-0--7-3-3--5-5-5--8-7---|
F |---0-0-0--7-3-3--5-5-5--8-7---|
A#|---0-0-0--7-3-3--5-5-5--8-7---|
       Sometimes     I     
                     
                   [Both Guitars]
C |----------------|--------------|
G |----------------|--------------|
D#|----------------|--------------|
A#|---0-0-0--7-3-3-|-0-0-0--0-0---|
F |---0-0-0--7-3-3-|-0-0-0--0-0---| 
A#|---0-0-0--7-3-3-|-0-0-0--0-0---| 
    Need you to   Stay away from me

  [Both Guitars]
C |------------------------------|
G |------------------------------|
D#|------------------------------|
A#|---0-0-0--7-3-3--5-5-5--8-7---|
F |---0-0-0--7-3-3--5-5-5--8-7---|
A#|---0-0-0--7-3-3--5-5-5--8-7---|
       Sometimes     I'm     

C |------------------------------|
G |------------------------------|
D#|------------------------------|
A#|---0-0-0--7-3-3--5-5-5--8-7---|
F |---0-0-0--7-3-3--5-5-5--8-7---|
A#|---0-0-0--7-3-3--5-5-5--8-7---|
  In disbelief  i didn't know

C |------------------------------|
G |------------------------------|
D#|------------------------------|
A#|---0-0-0--7-3-3--5-5-5--8-7---|
F |---0-0-0--7-3-3--5-5-5--8-7---|
A#|---0-0-0--7-3-3--5-5-5--8-7---|
       Somehow       I   

C |------------------------------|
G |------------------------------|
D#|------------------------------|
A#|---0-0-0--7-3-3--0-0-0--0-0---|
F |---0-0-0--7-3-3--0-0-0--0-0---|
A#|---0-0-0--7-3-3--0-0-0--0-0---|
    Need    you    to    go!!!

[Chorus]
[Both Guitars]
C |------------------------|---------------------|
G |------------------------|---------------------|
D#|------------------------|---------------------|
A#|---0-0-0--7-7-8-8-10-10-|-5-5-5--7-7--3-1-0---|
F |---0-0-0--7-7-8-8-10-10-|-5-5-5--7-7--3-1-0---|
A#|---0-0-0--7-7-8-8-10-10-|-5-5-5--7-7--3-1-0---|
 Don't stay for get our...Forget out possibilities

C |------------------------|---------------------|
G |------------------------|---------------------|
D#|------------------------|---------------------|
A#|---0-0-0--7-7-8-8-10-10-|-5-5-5--7-7--3-1-0---|
F |---0-0-0--7-7-8-8-10-10-|-5-5-5--7-7--3-1-0---|
A#|---0-0-0--7-7-8-8-10-10-|-5-5-5--7-7--3-1-0---|
 What you were changing...Just give me myself... (Dont stay)

C |------------------------|---------------------|
G |------------------------|---------------------|
D#|------------------------|---------------------|
A#|---0-0-0--7-7-8-8-10-10-|-5-5-5--7-7--3-1-0---|
F |---0-0-0--7-7-8-8-10-10-|-5-5-5--7-7--3-1-0---|
A#|---0-0-0--7-7-8-8-10-10-|-5-5-5--7-7--3-1-0---|
  Forget out memories    Forget our possibilities

C |------------------------|---------------------|
G |------------------------|---------------------|
D#|------------------------|---------------------|
A#|---0-0-0--7-7-8-8-10-10-|-5-5-5--7-7--3-1-0---|
F |---0-0-0--7-7-8-8-10-10-|-5-5-5--7-7--3-1-0---|
A#|---0-0-0--7-7-8-8-10-10-|-5-5-5--7-7--3-1-0---|
      Take all your...    Just give me myself... (Don't stay)
 
[Guitar 1]
C |------------------------------|
G |------------------------------|
D#|------------------------------|
A#|---0-0-0--7-3-3--5-5-5--8-7---|
F |---0-0-0--7-3-3--5-5-5--8-7---|
A#|---0-0-0--7-3-3--5-5-5--8-7---|
                               (x2)
[Guitar 2]                  
C |------------------------------|
G |------------------------------|
D#|------------------------------|
A#|---0-0-0--7-3-3--5-5-5--8-7---|
F |---0-0-0--7-3-3--5-5-5--8-7---|
A#|---0-0-0--7-3-3--5-5-5--8-7---|

[Verse 2]
[Guitar 1 Only]
C |------------------------------|
G |------------------------------|
D#|------------------------------|
A#|---0-0-0--7-3-3--5-5-5--8-7---|
F |---0-0-0--7-3-3--5-5-5--8-7---|
A#|---0-0-0--7-3-3--5-5-5--8-7---|
       Sometimes     I    

C |------------------------------|
G |------------------------------|
D#|------------------------------|
A#|---0-0-0--7-3-3--5-5-5--8-7---|
F |---0-0-0--7-3-3--5-5-5--8-7---|
A#|---0-0-0--7-3-3--5-5-5--8-7---|
 Feel like i trusted you too well

C |------------------------------|
G |------------------------------|
D#|------------------------------|
A#|---0-0-0--7-3-3--5-5-5--8-7---|
F |---0-0-0--7-3-3--5-5-5--8-7---|
A#|---0-0-0--7-3-3--5-5-5--8-7---|
       Sometimes     I    

C |------------------------------|
G |------------------------------|
D#|------------------------------|
A#|---0-0-0--7-3-3--0-0-0--0-0---|
F |---0-0-0--7-3-3--0-0-0--0-0---|
A#|---0-0-0--7-3-3--0-0-0--0-0---|
 Just feel like screaming at myself

  [Both Guitars]
C |------------------------------|
G |------------------------------|
D#|------------------------------|
A#|---0-0-0--7-3-3--5-5-5--8-7---|
F |---0-0-0--7-3-3--5-5-5--8-7---|
A#|---0-0-0--7-3-3--5-5-5--8-7---|
       Sometimes     I'm     

C |------------------------------|
G |------------------------------|
D#|------------------------------|
A#|---0-0-0--7-3-3--5-5-5--8-7---|
F |---0-0-0--7-3-3--5-5-5--8-7---|
A#|---0-0-0--7-3-3--5-5-5--8-7---|
  In disbelief  i didn't know

C |------------------------------|
G |------------------------------|
D#|------------------------------|
A#|---0-0-0--7-3-3--5-5-5--8-7---|
F |---0-0-0--7-3-3--5-5-5--8-7---|
A#|---0-0-0--7-3-3--5-5-5--8-7---|
       Sometimes     I    

C |----------------------------|--------------|
G |----------------------------|--------------|
D#|----------------------------|--------------|
A#|---0-0-0--7-3-3--0-0-0--0-0-|-0-0-0--0-0---|
F |---0-0-0--7-3-3--0-0-0--0-0-|-0-0-0--0-0---|
A#|---0-0-0--7-3-3--0-0-0--0-0-|-0-0-0--0-0---|
    Need    to    be   alone!!!

  [Chorus]
  [Both Guitars]
C |------------------------|---------------------|
G |------------------------|---------------------|
D#|------------------------|---------------------|
A#|---0-0-0--7-7-8-8-10-10-|-5-5-5--7-7--3-1-0---|
F |---0-0-0--7-7-8-8-10-10-|-5-5-5--7-7--3-1-0---|
A#|---0-0-0--7-7-8-8-10-10-|-5-5-5--7-7--3-1-0---|
 Don't stay for get our...Forget out possibilities

C |------------------------|---------------------|
G |------------------------|---------------------|
D#|------------------------|---------------------|
A#|---0-0-0--7-7-8-8-10-10-|-5-5-5--7-7--3-1-0---|
F |---0-0-0--7-7-8-8-10-10-|-5-5-5--7-7--3-1-0---|
A#|---0-0-0--7-7-8-8-10-10-|-5-5-5--7-7--3-1-0---|
 What you were changing...Just give me myself... (Dont stay)

C |------------------------|---------------------|
G |------------------------|---------------------|
D#|------------------------|---------------------|
A#|---0-0-0--7-7-8-8-10-10-|-5-5-5--7-7--3-1-0---|
F |---0-0-0--7-7-8-8-10-10-|-5-5-5--7-7--3-1-0---|
A#|---0-0-0--7-7-8-8-10-10-|-5-5-5--7-7--3-1-0---|
  Forget out memories    Forget our possibilities

C |------------------------|---------------------|
G |------------------------|---------------------|
D#|------------------------|---------------------|
A#|---0-0-0--7-7-8-8-10-10-|-5-5-5--7-7--3-1-0---|
F |---0-0-0--7-7-8-8-10-10-|-5-5-5--7-7--3-1-0---|
A#|---0-0-0--7-7-8-8-10-10-|-5-5-5--7-7--3-1-0---|
      Take all your...    Just give me myself... (Don't stay)

[Intro part 1 w/ Phaser effect]
[Guitar 1]
C |------------------------------|
G |------------------------------|
D#|------------------------------|
A#|---0-0-0--7-3-3--5-5-5--8-7---|
F |---0-0-0--7-3-3--5-5-5--8-7---|
A#|---0-0-0--7-3-3--5-5-5--8-7---|
                               (x4)
[Guitar 2]           
C |------------------------------|
G |------------------------------|
D#|------------------------------|
A#|------------------------------|
F |------------------------------|
A#|------------------------------|

  [Breakdown]
  [Both guitars]
C |----------------------------------|
G |----------------------------------|
D#|--------------7-7-7-7-7-7-7--10---|
A#|---0-0-1-0-0--x-x-x-x-x-x-x---x---|
F |---0-0-1-0-0--5-5-5-5-5-5-5---8---|
A#|---0-0-1-0-0----------------------|
   I don't need you        anymore

C |----------------------------------|
G |----------------------------------|
D#|--------------7-7-7-7-7-7-7--10---|
A#|---0-0-1-0-0--x-x-x-x-x-x-x---x---|
F |---0-0-1-0-0--5-5-5-5-5-5-5---8---|
A#|---0-0-1-0-0----------------------|
     I don't want to be ignored

C |----------------------------------|
G |----------------------------------|
D#|--------------7-7-7-7-7-7-7--10---|
A#|---0-0-1-0-0--x-x-x-x-x-x-x---x---|
F |---0-0-1-0-0--5-5-5-5-5-5-5---8---|
A#|---0-0-1-0-0----------------------|
    I don't need one      more day

C |----------------------------------|
G |----------------------------------|
D#|--------------7-7-7-7-7-7-7--10---|
A#|---0-0-1-0-0--x-x-x-x-x-x-x---x---|
F |---0-0-1-0-0--5-5-5-5-5-5-5---8---|
A#|---0-0-1-0-0----------------------|
       Of you wasting me away!!!

  [Repeat]
C |----------------------------------|
G |----------------------------------|
D#|--------------7-7-7-7-7-7-7--10---|
A#|---0-0-1-0-0--x-x-x-x-x-x-x---x---|
F |---0-0-1-0-0--5-5-5-5-5-5-5---8---|
A#|---0-0-1-0-0----------------------|
   I don't need you        anymore

C |----------------------------------|
G |----------------------------------|
D#|--------------7-7-7-7-7-7-7--10---|
A#|---0-0-1-0-0--x-x-x-x-x-x-x---x---|
F |---0-0-1-0-0--5-5-5-5-5-5-5---8---|
A#|---0-0-1-0-0----------------------|
     I don't want to be ignored

C |----------------------------------|
G |----------------------------------|
D#|--------------7-7-7-7-7-7-7--10---|
A#|---0-0-1-0-0--x-x-x-x-x-x-x---x---|
F |---0-0-1-0-0--5-5-5-5-5-5-5---8---|
A#|---0-0-1-0-0----------------------|
    I don't need one      more day

C |---------------|
G |---------------|
D#|---------------|
A#|---0-0-1-0-0---|
F |---0-0-1-0-0---|
A#|---0-0-1-0-0---|
 Of you wasting me 

  [End of Breakdown]
C |------------------|--------------------------|
G |------------------|--------------------------|
D#|------------------|--------------------------|x4
A#|---0-1-0--1-3-3-3-|-0-1-0--1-3-3-3-3-3-3-3---|
F |---0-1-0--1-3-3-3-|-0-1-0--1-3-3-3-3-3-3-3---|
A#|---0-1-0--1-3-3-3-|-0-1-0--1-3-3-3-3-3-3-3---|
 Away!!!! (Away!!!)     With no apologies

  [Chorus]
  [Both Guitars]
C |------------------------|---------------------|
G |------------------------|---------------------|
D#|------------------------|---------------------|
A#|---0-0-0--7-7-8-8-10-10-|-5-5-5--7-7--3-1-0---|
F |---0-0-0--7-7-8-8-10-10-|-5-5-5--7-7--3-1-0---|
A#|---0-0-0--7-7-8-8-10-10-|-5-5-5--7-7--3-1-0---|
 Don't stay for get our...Forget out possibilities

C |------------------------|---------------------|
G |------------------------|---------------------|
D#|------------------------|---------------------|
A#|---0-0-0--7-7-8-8-10-10-|-5-5-5--7-7--3-1-0---|
F |---0-0-0--7-7-8-8-10-10-|-5-5-5--7-7--3-1-0---|
A#|---0-0-0--7-7-8-8-10-10-|-5-5-5--7-7--3-1-0---|
 What you were changing...Just give me myself... (Dont stay)

C |------------------------|---------------------|
G |------------------------|---------------------|
D#|------------------------|---------------------|
A#|---0-0-0--7-7-8-8-10-10-|-5-5-5--7-7--3-1-0---|
F |---0-0-0--7-7-8-8-10-10-|-5-5-5--7-7--3-1-0---|
A#|---0-0-0--7-7-8-8-10-10-|-5-5-5--7-7--3-1-0---|
  Forget out memories    Forget our possibilities

C |------------------------|---------------------|
G |------------------------|---------------------|
D#|------------------------|---------------------|
A#|---0-0-0--7-7-8-8-10-10-|-5-5-5--7-7--3-1-0---|
F |---0-0-0--7-7-8-8-10-10-|-5-5-5--7-7--3-1-0---|
A#|---0-0-0--7-7-8-8-10-10-|-5-5-5--7-7--3-1-0---|
      Take all your...    Just give me myself... (Don't stay)

  [Outro]
  [Both Guitars]
C |------------------------------|
G |------------------------------|
D#|------------------------------|
A#|---0-0-0--7-3-3--5-5-5--8-7---|
F |---0-0-0--7-3-3--5-5-5--8-7---|
A#|---0-0-0--7-3-3--5-5-5--8-7---|
         Don't stay!!!

C |------------------------------|
G |------------------------------|
D#|------------------------------|
A#|---0-0-0--7-3-3--5-5-5--8-7---|
F |---0-0-0--7-3-3--5-5-5--8-7---|
A#|---0-0-0--7-3-3--5-5-5--8-7---|
            (Stay)

C |------------------------------|
G |------------------------------|
D#|------------------------------|
A#|---0-0-0--7-3-3--5-5-5--8-7---|
F |---0-0-0--7-3-3--5-5-5--8-7---|
A#|---0-0-0--7-3-3--5-5-5--8-7---|
         Don't stay!!!

C |----------------------------------|
G |----------------------------------|
D#|----------------------------------|
A#|---0-0-0--7-3-3--1-1-1--0-0-0-0---|
F |---0-0-0--7-3-3--1-1-1--0-0-0-0---|
A#|---0-0-0--7-3-3--1-1-1--0-0-0-0---|
                         . . . .(palm mutes)
Don't Stay!!!
Suggest correction
comments
print report bad tab
2 comments total.
0 reply
AMD.45H 229 Sep 21, 2010 01:41 AM

this might sound newbish but what is B tuning and how do I tune it to that? is it same as drop B?

0 reply
TBFMVRA 73 Oct 27, 2014 04:56 AM

Band:Linkin Park
Song:Don't Stay
Tuning: Bb F Bb Eb G C
Tabbed by:Justin Barrera
E-Mail:Jamming_out_rocker@yahoo.com

This is 100% correct...

Intro Part 1
Guitar 1
|------------------------------|
|------------------------------|
|------------------------------|
|---0-0-0--7-3-3--5-5-5--8-7---|
|---0-0-0--7-3-3--5-5-5--8-7---|
|---0-0-0--7-3-3--5-5-5--8-7---|
| |x4
|Guitar 2 |
|------------------------------|
|------------------------------|
|------------------------------|
|------------------------------|
|------------------------------|
|------------------------------|

Intro Part 2
Guitar 1
|------------------------------|
|------------------------------|
|------------------------------|
|---0-0-0--7-3-3--5-5-5--8-7---|
|---0-0-0--7-3-3--5-5-5--8-7---|
|---0-0-0--7-3-3--5-5-5--8-7---|
| |x4
|Guitar 2 |
|------------------------------|
|------------------------------|
|------------------------------|
|---0-0-0--7-3-3--5-5-5--8-7---|
|---0-0-0--7-3-3--5-5-5--8-7---|
|---0-0-0--7-3-3--5-5-5--8-7---|

Verse 1
Guitar 1 Only
|------------------------------|
|------------------------------|
|------------------------------|
|---0-0-0--7-3-3--5-5-5--8-7---|
|---0-0-0--7-3-3--5-5-5--8-7---|
|---0-0-0--7-3-3--5-5-5--8-7---|
Sometimes I

|------------------------------|
|------------------------------|
|------------------------------|
|---0-0-0--7-3-3--5-5-5--8-7---|
|---0-0-0--7-3-3--5-5-5--8-7---|
|---0-0-0--7-3-3--5-5-5--8-7---|
Need to remember just to breath

|------------------------------|
|------------------------------|
|------------------------------|
|---0-0-0--7-3-3--5-5-5--8-7---|
|---0-0-0--7-3-3--5-5-5--8-7---|
|---0-0-0--7-3-3--5-5-5--8-7---|
Sometimes I

Both Guitars
|----------------|--------------|
|----------------|--------------|
|----------------|--------------|
|---0-0-0--7-3-3-|-0-0-0--0-0---|
|---0-0-0--7-3-3-|-0-0-0--0-0---|
|---0-0-0--7-3-3-|-0-0-0--0-0---|
Need you to Stay away from me

Both Guitars
|------------------------------|
|------------------------------|
|------------------------------|
|---0-0-0--7-3-3--5-5-5--8-7---|
|---0-0-0--7-3-3--5-5-5--8-7---|
|---0-0-0--7-3-3--5-5-5--8-7---|
Sometimes I'm

|------------------------------|
|------------------------------|
|------------------------------|
|---0-0-0--7-3-3--5-5-5--8-7---|
|---0-0-0--7-3-3--5-5-5--8-7---|
|---0-0-0--7-3-3--5-5-5--8-7---|
In disbelief i didn't know

|------------------------------|
|------------------------------|
|------------------------------|
|---0-0-0--7-3-3--5-5-5--8-7---|
|---0-0-0--7-3-3--5-5-5--8-7---|
|---0-0-0--7-3-3--5-5-5--8-7---|
Somehow I

|------------------------------|
|------------------------------|
|------------------------------|
|---0-0-0--7-3-3--0-0-0--0-0---|
|---0-0-0--7-3-3--0-0-0--0-0---|
|---0-0-0--7-3-3--0-0-0--0-0---|
Need you to go!!!

Chorus
Both Guitars
|------------------------|---------------------|
|------------------------|---------------------|
|------------------------|---------------------|
|---0-0-0--7-7-8-8-10-10-|-5-5-5--7-7--3-1-0---|
|---0-0-0--7-7-8-8-10-10-|-5-5-5--7-7--3-1-0---|
|---0-0-0--7-7-8-8-10-10-|-5-5-5--7-7--3-1-0---|
Don't stay for get our...Forget out possibilities

|------------------------|---------------------|
|------------------------|---------------------|
|------------------------|---------------------|
|---0-0-0--7-7-8-8-10-10-|-5-5-5--7-7--3-1-0---|
|---0-0-0--7-7-8-8-10-10-|-5-5-5--7-7--3-1-0---|
|---0-0-0--7-7-8-8-10-10-|-5-5-5--7-7--3-1-0---|
What you were changing...Just give me myself... (Dont stay)

|------------------------|---------------------|
|------------------------|---------------------|
|------------------------|---------------------|
|---0-0-0--7-7-8-8-10-10-|-5-5-5--7-7--3-1-0---|
|---0-0-0--7-7-8-8-10-10-|-5-5-5--7-7--3-1-0---|
|---0-0-0--7-7-8-8-10-10-|-5-5-5--7-7--3-1-0---|
Forget out memories Forget our possibilities

|------------------------|---------------------|
|------------------------|---------------------|
|------------------------|---------------------|
|---0-0-0--7-7-8-8-10-10-|-5-5-5--7-7--3-1-0---|
|---0-0-0--7-7-8-8-10-10-|-5-5-5--7-7--3-1-0---|
|---0-0-0--7-7-8-8-10-10-|-5-5-5--7-7--3-1-0---|
Take all your... Just give me myself... (Don't stay)

Guitar 1
|------------------------------|
|------------------------------|
|------------------------------|
|---0-0-0--7-3-3--5-5-5--8-7---|
|---0-0-0--7-3-3--5-5-5--8-7---|
|---0-0-0--7-3-3--5-5-5--8-7---|
| |x2
|Guitar 2 |
|------------------------------|
|------------------------------|
|------------------------------|
|---0-0-0--7-3-3--5-5-5--8-7---|
|---0-0-0--7-3-3--5-5-5--8-7---|
|---0-0-0--7-3-3--5-5-5--8-7---|

Verse 2
Guitar 1 Only
|-

guest
You may want to rate the tab now too:
select rating
Wanna post a correction for this tab? Suggest correction