Oops, an error
Loading. Please wait.

Easier To Run Bass Tab

version 2
version 2

Whole song

Interactive

945 views 3 this week
no commentswrite comment
1 2 3 4 5
please rate
add to favorites
launch autoscroll
font size
0
reset
guitar tuner
Autoscroll
slow
fast
+/-
esc
set tempo
stop
Help us to improve Ultimate-Guitar.com Take our survey!
×
Difficulty
novice
Easier to run


Intro.....
G/-------------------------------------------------I
D/-------------2---------------------2-------------I  2x- Intro guitar solo 
A/-----2--2---------3----3----5----------2---------I plays twice alone 1st. 
E/-------------------------------------------------I   
Chorus......
G/------------------------------------------------------------I
D/------------------------------------------------------------I  2x-Then 
A/----777---7----333---3----555---5----222--------------------I  pause foe 8 
E/------------------------------------------------------------I  beats
                   Verses.......
G/------------------------------------------I
D/---------9---10---10---9------------------I  8x
A/---7---------------------------10---9-----I
E/------------------------------------------I

Then right  back into the chorus.........
........ Then back  to the verses.......

                     Bridge.......
G/-------------------------------------------------------------------------I
D/-------------------------------------------------------------------------I
A/--333----555----777----222----333----555----5--17--5---5/17--17--17--17--I
E/-------------------------------------------------------------------------I

                       Last chorus.......                 
D/------------------------------------------------I
G/------------------------------------------------I  
A/---777----333----555----222---999----14-14-14---I
E/------------------------------------------------I       
Suggest correction
Give kudos to tab author, rate the tab!
1 2 3 4 5
comments
print report bad tab
guest
You may want to rate the tab now too:
select rating
Please do not post tabs as comments. Select "correction" instead!