Oops, an error
Loading. Please wait.

Easier To Run Bass Tab

version 3
version 3

Whole song

Interactive

864 views 1 this week
no commentswrite comment
1 2 3 4 5
please rate
add to favorites
launch autoscroll
font size
0
reset
guitar tuner
Tab Pro tools
  • play this tab
  • loop segment
  • change instrument
  • show fretboard
  • metronome
×
Best way to learn
"Easier To Run"
Autoscroll
slow
fast
+/-
esc
set tempo
stop
Contributor
Song-Easier To Run
Artist-Linkin Park
Album-Meteora
Transcribed By-Oldreich87

I just started playing bass not too long ago and this is my first complete song that I 
learned and my first bass tab, so forgive me if this is bad.


Intro & Pre Chorus
G|--------------------------|
D|-------1------------1-----|
A|-1*-1-----2----2-4-----1--|
C#|-------------------------|

Chorus
G|-----------------------------------------------------|
D|-----------------------------------------------------|
A|--------------2-2-2---------------------1-1-1--------|
C#|-2-2-2---------------------0-0-0--------------------|

Verses
G|---------------------------|
D|----8--9----9-8------------|
A|-6---------------9--8----9-|
C#|--------------------------| x4

Bridge
G|------------------------------------------------------|
D|------------------------------------------------------|
A|-2-2-2----------------------------------1-1-1---------|
C#|--------------0-0-0--------2-2-2---------------------|

G|------------------------------------------------------|
D|------------------------------------------------------|
A|-2-2-2------------------------------------------------|
C#|--------------0-0-0--------0-12-0-----0/12-12-12-----|

Last Chorus
G|---------------------------------------------------|
D|---------------------------------------------------|
A|------------2-2-2---------------------1-1-1--------|
C#|-2-2-2-------------------0-0-0--------------------|

G|---------------------|
D|---------------------|
A|-8-8-8-----13-13-13--|
C#|--------------------| x4
comments
We did not receive enough feedback on this tab! Please rate:
print report bad tab
1 2 3 4 5
I want to post or [tab]
guest
You may want to rate the tab now too:
select rating
Please do not post tabs as comments. Select "correction" instead!