Oops, an error
Loading. Please wait.

Easier To Run Tab

version 3
version 3
1,228 views 1 this week
no commentswrite comment
1 2 3 4 5
x 5
add to favorites
launch autoscroll
font size
0
reset
how to read this tab
guitar tuner
Autoscroll
slow
fast
+/-
esc
set tempo
stop
Help us to improve Ultimate-Guitar.com Take our survey!
×
-------------------------------------------------------------------------------
                             EASIER TO RUN – Linkin Park
-------------------------------------------------------------------------------

Tabbed by: Luis Munoz
Email: LamaGua@aol.com

Tuning: Drop D & ½ Step Down

x = Mute note

Intro

Eb|---------------------------------------|
Bb|----0x—0x------8----8x—7x------10------|
Gb|-----------0x--------------0x----------|  4x
Db|---------------------------------------|
Ab|---------------------------------------|
Db|---------------------------------------|

Chorus

Eb|------------------------------------|
Bb|------------------------------------|
Gb|------------------------------------|  2x
Db|----2-------5-------7-------4-------|
Ab|----2-------5-------7-------4-------|
Db|----2-------5-------7-------4-------|

Verse 1

Eb|---------------------------------------|
Bb|----0x—0x------8----8x—7x------10------|
Gb|-----------0x--------------0x----------|  9x
Db|---------------------------------------|
Ab|---------------------------------------|
Db|---------------------------------------|

Chorus

Eb|------------------------------------|
Bb|------------------------------------|
Gb|------------------------------------|  2x
Db|----2-------5-------7-------4-------|
Ab|----2-------5-------7-------4-------|
Db|----2-------5-------7-------4-------|

Verse 2

Eb|---------------------------------------|
Bb|----0x—0x------8----8x—7x------10------|
Gb|-----------0x--------------0x----------|  8x
Db|---------------------------------------|
Ab|---------------------------------------|
Db|---------------------------------------|


Bridge

Eb|-------------------------------------|
Bb|-------------------------------------|
Gb|-------------------------------------|
Db|----5-------7-------9-------4--------|
Ab|----5-------7-------9-------4--------|
Db|----5-------7-------9-------4--------|

Eb|-------------------------------------|
Bb|-------------------------------------|
Gb|-------------------------------------|
Db|----5-------7-------7-------7--------|
Ab|----5-------7-------7-------7--------|
Db|----5-------7-------7-------7--------|

Chorus

Eb|------------------------------------|
Bb|------------------------------------|
Gb|------------------------------------|  4x
Db|----2-------5-------7-------4-------|
Ab|----2-------5-------7-------4-------|
Db|----2-------5-------7-------4-------|


Eb|----------------------------------------------------------|
Bb|----------------------------------------------------------|
Gb|----11-11-11-11-11-11-11-11-11-11-11-11-11-11-11-11-------|
Db|-----x--x--x--x--x--x--x--x--x--x--x--x--x--x--x—-x-------|
Ab|-----9--9--9--9--9--9--9--9--9--9--9--9--9--9--9--9-------|
Db|----------------------------------------------------------|

Eb|---------|
Bb|---------|
Gb|----7----|
Db|----x----|
Ab|----5----|
Db|---------|


===============================================================================
Suggest correction
comments
print report bad tab
guest
You may want to rate the tab now too:
select rating
Wanna post a correction for this tab? Suggest correction