Oops, an error
Loading. Please wait.

Easier To Run Bass

version 4
version 4

Whole song

Interactive

1,542 views 9 this week
2 commentsread comments
1 2 3 4 5
2 more votes to show rating
add to favorites
launch autoscroll
font size
0
reset
guitar tuner
Autoscroll
slow
fast
+/-
esc
set tempo
stop
Author
Difficulty
Tuning
novice
D# G# C# F#
-------------------------------------------------------------------------------
			     EASIER TO RUN - Linkin Park
-------------------------------------------------------------------------------



Tabbed By : HighVoltage2 
e-mail: Tigersnake2@gmx.at

Tuning: Db Ab Db Gb

Intro: (2x)

Gb|--------------------------------------------------------------------|
Db|------2----------------------------2--------------------------------|
Ab|-3--------3-------------3---5---------2------------ 2---------------|
Db|--------------------------------------------------------------------|  

Chorus: (2x)

Gb|--------------------------------------------------------------------|
Db|--------------------------------------------------------------------|
Ab|--------------------------------------------------------------------|
Db|-0-----0-----0-------------------3-----3-----3----------------------|

Gb|--------------------------------------------------------------------|
Db|--------------------------------------------------------------------|
Ab|--------------------------------------------------------------------|
Db|-5-----5-----5-------------------2-----2-----2----------------------|

Verse A: (4x)

Gb|--------------------------------------------------------------------|
Db|------9---10----------10---9----------------------------------------|
Ab|-7-------------------------------10---9----------- 10---------------|
Db|--------------------------------------------------------------------| 

Verse B: (4x)

Gb|--------------------------------------------------------------------|
Db|------2----------------------------2--------------------------------|
Ab|-3--------3-------------3---5---------2------------ 2---------------|
Db|--------------------------------------------------------------------| 


Chorus: (2x)

Verse A: (4x)

Verse B: (4x)

Bridge: (1x)

Gb|--------------------------------------------------------------------|
Db|--------------------------------------------------------------------|
Ab|--------------------------------------------------------------------|
Db|-3-----3-----3-------------------5-----5-----5----------------------|

Gb|--------------------------------------------------------------------|
Db|--------------------------------------------------------------------|
Ab|--------------------------------------------------------------------|
Db|-0-----0-----0-------------------2-----2-----2----------------------|

Gb|--------------------------------------------------------------------|
Db|--------------------------------------------------------------------|
Ab|--------------------------------------------------------------------|
Db|-3-----3-----3-------------------5-----5-----5----------------------|

Gb|--------------------------------------------------------------------|
Db|--------------------------------------------------------------------|
Ab|--------------------------------------------------------------------|
Db|-5-----5-----5-------------------5-----5-----5----------------------|

Chorus:(2x)

Outro: (1x)

Gb|--------------------------------------------------------------------|
Db|--------------------------------------------------------------------|
Ab|--------------------------------------------------------------------|
Db|-0-----0-----0-------------------3-----3-----3----------------------|

Gb|--------------------------------------------------------------------|
Db|--------------------------------------------------------------------|
Ab|--------------------------------------------------------------------|
Db|-5-----5-----5-------------------2-----2-----2----------------------|

Gb|--------------------------------------------------------------------|
Db|--------------------------------------------------------------------|
Ab|--------------------------------------------------------------------|
Db|-0-----0-----0-------------------3-----3-----3----------------------|

Gb|--------------------------------------------------------------------|
Db|--------------------------------------------------------------------|
Ab|--------------------------------------------------------------------|
Db|-5-----5-----5-------------------2-----2-----2----------------------|

Gb|--------------------------------------------------------------------|
Db|--------------------------------------------------------------------|
Ab|--------------------------------------------------------------------|
Db|-2-----2-----2-------------------2-----2-----2~---------------------|


| /  slide up
| \  slide down
| h  hammer-on
| p  pull-off
| ~  vibrato
| +  harmonic
| x  Mute note
===============================================================================
Suggest correction
Give kudos to tab author, rate the tab!
1 2 3 4 5
comments
print report bad tab
2 comments total.
0 reply
Tomozaurus 230 Apr 16, 2010 02:53 PM

Uh, pretty sure this is in Eb tuning. All the notes on the low Db string here are a step too low.

0 reply
2016pearsoow 127 Jul 18, 2016 12:31 PM

Nowhere near correct. I don't know how this passed. Maybe wrong tuning you put down?

guest
You may want to rate the tab now too:
select rating
Wanna post a correction for this tab? Suggest correction