Oops, an error
Loading. Please wait.

Easier To Run Tab

version 5
version 5
1,106 views 1 this week
no commentswrite comment
1 2 3 4 5
x 3
add to favorites
launch autoscroll
font size
0
reset
how to read this tab
guitar tuner
Autoscroll
slow
fast
+/-
esc
set tempo
stop
Help us to improve Ultimate-Guitar.com Take our survey!
×
Author
-----------------------------------------------------------------------
                      Easier To Run – Linkin Park
                               Meteora
-----------------------------------------------------------------------

Tabbed by: Grea$e
Email: l33t_grease@hotmail.com

Tuning: Guitar 1: Drop D & ½ Step Down (Db, Ab, Db, Gb, Bb, Eb)
        Guitar 2: Bb (A#) Tuning (Bb, F, Bb, Eb, G, C)

Intro: Guitar 1
Eb|---------------------------------------|
Bb|----0x—0x------8----8x—7x------10------|
Gb|-----------0x--------------0x----------|  x4
Db|---------------------------------------|
Ab|---------------------------------------|
Db|---------------------------------------|

Chorus: Guitar 1
eb|----------------------------------------|
Bb|----------------------------------------|
Gb|-9-9-9-9--9-9-9-9--9-9-9-9--11-11-11-11-|
Db|-x-x-x-x--x-x-x-x--x-x-x-x--x--x--x--x--|
Ab|-7-7-7-7--7-7-7-7--7-7-7-7--9--9--9--9--|
Db|----------------------------------------|

eb|-----------------------------------------|
Bb|-----------------------------------------|
Gb|-9-9-9-9--9-9-9-9--11-11-11-11--9-9-9-9--|
Db|-x-x-x-x--x-x-x-x--x--x--x--x---x-x-x-x--|
Ab|-7-7-7-7--7-7-7-7--9--9--9--9---7-7-7-7--|
Db|-----------------------------------------|
(Strumming Pattern Not shown, But You Get The Idea)

Chorus: Guitar 2
C |--------------------|
G |--------------------|
Eb|--------------------|   x2
Bb|-5-5--1-1--3-3--0-0-|
F |-5-5--1-1--3-3--0-0-|
Bb|-5-5--1-1--3-3--0-0-|

Verse: Guitar 1
Eb|---------------------------------------|
Bb|----0x—0x------8----8x—7x------10------|
Gb|-----------0x--------------0x----------|
Db|---------------------------------------|
Ab|---------------------------------------|
Db|---------------------------------------|

Bridge: Guitar 1
eb|-------------------------------------|
Bb|-------------------------------------|
Gb|-9-9-9-9--9-9-9-9--9-9-9-9--7-7-7-7--|
Db|-x-x-x-x--x-x-x-x--x-x-x-x--x-x-x-x--|
Ab|-7-7-7-7--7-7-7-7--7-7-7-7--5-5-5-5--|
Db|-------------------------------------|

eb|----------------------------------------|
Bb|----------------------------------------|
Gb|-9-9-9-9--9-9-9-9--9-9-9-9--11-11-11-11-|
Db|-x-x-x-x--x-x-x-x--x-x-x-x--x--x--x--x--|
Ab|-7-7-7-7--7-7-7-7--7-7-7-7--9--9--9--9--|
Db|----------------------------------------|

Bridge: Guitar 2
C |-----------------------------------------|
G |-----------------------------------------|
Eb|-----------------------------------------|
Bb|-1-1---3-3---5-5---0-0---1-1---3-3--3-3--|
F |-1-1---3-3---5-5---0-0---1-1---3-3--3-3--|
Bb|-1-1---3-3---5-5---0-0---1-1---3-3--3-3--|


End: Guitar 1
eb|-------------------------------------------|
Bb|-------------------------------------------|
Gb|--11-11-11-11-11-11-11-11-11-11-11-11--7~--|
Db|--x--x--x--x--x--x--x--x--x--x--x--x---x~--|
Ab|--9--9--9--9--9--9--9--9--9--9--9--9---5~--|
Db|-------------------------------------------|

End: Guitar 2
C |-------------------------------------------|
G |-------------------------------------------|
Eb|-------------------------------------------|
Bb|-0---0---0---0---0---0---0---0---0---0-----|
F |-0---0---0---0---0---0---0---0---0---0-----|
Bb|-0---0---0---0---0---0---0---0---0---0--5+-|


Intro:
Chorus:
Verse: x9
Chorus:
Verse: x8
Bridge:
Chorus: x2
End:

Try this guys, it sounds pretty right to me. But its only a guide.
Please send me corrections and comments to my email. 

NB: Intro by Luis Munoz (LamaGua@aol.com)

| /  slide up
| \  slide down
| h  hammer-on
| p  pull-off
| ~  vibrato
| +  harmonic
| x  Mute note
=======================================================================
Suggest correction
Give kudos to tab author, rate the tab!
1 2 3 4 5
comments
print report bad tab
guest
You may want to rate the tab now too:
select rating
Wanna post a correction for this tab? Suggest correction