Oops, an error
Loading. Please wait.

Faint Tab

version 3
20,446 views 1 this week
11 commentsread comments
1 2 3 4 5
x 10
add to favorites
launch autoscroll
font size
0
reset
how to read this tab
guitar tuner
Autoscroll
slow
fast
+/-
esc
set tempo
stop
Help us to improve Ultimate-Guitar.com Take our survey!
×
Tabbed by: James
This is the Correct way to play Faint.from DVD and by ear
Intro & Chorus
E|-------|-----------------------------------|
B|-------|-----------------------------------|
G|-------|-----------------------------------|
D|-------|-----------------------------------|
A|--7777-|--0-0---7-7---5-5--5-5---7-7--3-3--|
D|--7777-|--0-0---7-7---5-5--5-5---7-7--3-3--|
   |P M |

Verse(listen to it...youll figure it out)
|--------------------------------------------------------|
|--------------------------------------------------------|
|--------------------------------------------------------|
|--------------------------------------------------------|
|-------7---------------7-----------------7------5-------|
|-------7---------------7-----------------7------5-------|
Bridge
|--------------------------------------------------------|
|--------------------------------------------------------|
|--------------------------------------------------------|
|--------------------------------------------------------|
|-0--7--5--0--5--0------0--7--5--0--5--0--5--------------|
|-0--7--5--0--5--0------0--7--5--0--5--0--5--------------|
Suggest correction
comments
print report bad tab
11 comments total. Showing first comments.
0 reply
jjelectrix 150 Mar 29, 2003 12:00 AM

the bridge should go
|-0--7--3--2--3--2--|
|-0--7--3--2--3--2--|

0 reply
wesleydjohnson 10 Apr 09, 2003 12:00 AM

The 2nd Guitar Part For Intro & Chorus Is:

E|------------------------------------|
B|------------------------------------|
G|---------9-9---7-7---7-7---9-9---5-5|
D|---0-0---X-X---X-X---X-X---X-X---X-X|
A|---0-0---7-7---5-5---5-5---7-7---3-3|
D|---0-0------------------------------|

0 reply
jamie_hough 894 Apr 23, 2003 12:00 AM

its wrong mate

guest
You may want to rate the tab now too:
select rating
Wanna post a correction for this tab? Suggest correction