Oops, an error
Loading. Please wait.

Faint Tab

version 9
2,873 views 3 this week
3 commentsread comments
1 2 3 4 5
worth learning
x 6
add to favorites
launch autoscroll
font size
0
reset
how to read this tab
guitar tuner
Autoscroll
slow
fast
+/-
esc
set tempo
stop
Help us to improve Ultimate-Guitar.com Take our survey!
×
This song is pretty easy once you have the right tabs which I haven't seen yet.
These are it.  

Intro/Chorus

e----------------------------------------------------------------------------
B----------------------------------------------------------------------------
G----------------2-2-2--9-9--7-7-7---7-7-7--9-9--5-5-5-----------------------
D---(9-9-9-9)----2-2-2--9-9--7-7-7---7-7-7--9-9--5-5-5-----------------------
A---(9-9-9-9)----------------------------------------------------------------
E----------------------------------------------------------------------------
Play this 4 times

Verse

e----------------------------------------------------------------------------
B----------------------------------------------------------------------------
G----------------------------------------------------------------------------
D--7--------------7---------------7-------5-5----7-7-------------------------
A--7--------------7---------------7-------5-5----7-7-------------------------
E----------------------------------------------------------------------------

Bridge

e----------------------------------------------------------------------------
B----------------------------------------------------------------------------
G----------------------------------------------------------------------------
D---0--5--7--5--7--5------0--5--7--5--7--5-----------------------------------
A---0--5--7--5--7--5------0--5--7--5--7--5-----------------------------------
E----------------------------------------------------------------------------
Play this 4 times

This should be it.  This is my first tab so email me on how I did (scud22a@hotmail.com).
Suggest correction
comments
print report bad tab
3 comments total.
0 reply
undecided_gtr 40 wrote on October 30 2003, 12:00 am

That's not it!!!!

First: the tuning is Db Ab Db Gb Bb Eb.
Second: chorus riff & bridge riff is all wrong.

Chorus (as taught by Brad Delson of LP in July 03 issue of Guitar World)
Gtr. 1
Eb|---------------------------------------------------------|
Bb|---------------------------------------------------------|
Gb|---------------------------------------------------------|
Db|-0-0-0-0-0-0-0-5-5-5-5-5-5-5-8-8-8-8-8-8-8-5-5-5-7-3-3-3-|
Ab|-0-0-0-0-0-0-0-3-3-3-3-3-3-3-8-8-8-8-8-8-8-3-3-3-7-3-3-3-|
Db|-0-0-0-0-0-0-0-3-3-3-3-3-3-3-8-8-8-8-8-8-8-3-3-3-7-3-3-3-|

Gtr 2
Eb|---------------------------------------------------|
Bb|---------------------------------------------------|
Gb|-7--7--7--14-\-12--12--12--12--12--14--14-\-10--10-|
Db|-x--x--x---x--------x-------x---x---x---x--------x-|
Ab|-5--5--5--14-\-10--10--10--10--10--12--12-\--8---8-|
Db|---------------------------------------------------|

Bridge
Eb|-----------------------------------------------------------------------|
Bb|-----------------------------------------------------------------------|
Gb|-----------------------------------------------------------------------|
Db|-0-----7----3----2----3----2------0-------0------7----3----2----3----2-|
Ab|-0-----7----3----2----3----2------0-------0------7----3----2----3----2-| x 4
Db|-0-----7----3----2----3----2------0-------0------7----3----2----3----2-|

0 reply
avensus 10 wrote on July 27 2006, 08:45 am

I've NEVER seen a correct tab of this song. Ever.

0 reply
patman90 30 wrote on September 29 2006, 09:13 pm

wrong

guest
You may want to rate the tab now too:
select rating
Please do not post tabs as comments. Select "correction" instead!