Oops, an error
Loading. Please wait.

Final Masquerade Tab

version 1
version 1

Whole song

Interactive

31,987 views 75 this week
8 commentsread comments
1 2 3 4 5
x 16
add to favorites
launch autoscroll
font size
0
reset
how to read this tab
guitar tuner
Autoscroll
slow
fast
+/-
esc
set tempo
stop
Help us to improve Ultimate-Guitar.com Take our survey!
×
Author
Difficulty
Tuning
intermediate
D A D G B E
Artist: Linkin Park
Song: Final Masquerade
Tuning: Dropped D

(Note: No guitar parts until about 0:29.
Also,
these power chords):
E|---------|
B|---------|
G|-8-8-7-7-|
D|-8-8-7-7-|
A|-6-6-5-5-|
D|---------|

(can also be played like this):
E|---------|
B|---------|
G|---------|
D|-1-1-0-0-|
A|-1-1-0-0-|
D|-1-1-0-0-|

(In case you think the rhythm guitar sounds lower, you can 
play the power chords above instead of the ones 
I have in my tab.  Whichever way works.
Also, this):
E|-----|
B|-8-8-|
G|-x-x-|
D|-5-5-|
A|-5-5-|
D|-----|

(can also be played like this):
E|-----|
B|-----|
G|-----|
D|-5-5-|
A|-5-5-|
D|-----|

(From what I heard, it just sounded like there was a slightly 
higher sound, which is why I added the higher 8 on the 
B string.)

[Verse I]
[Guitar I]
[0:29-0:40]
E|------------------------------------------------------------|
B|------------------------------------------------------------|
G|------------------------------------------------------------|
D|-------------------------3-3-3-3-5-5-5-5-5-5-5-5-5-5-5-5-5--|
A|-6-6-6-6-6-6-6-6-6-6-6-6------------------------------------|
D|------------------------------------------------------------|

E|------------------------------------------------------------|
B|---------------------------------------8-8-8-8-8-8-8-8-8-8--|
G|---------------------------------------x-x-x-x-x-x-x-x-x-x--|
D|-5-5-5-3-3-3-3-3-3-3-3-3-3-3-3-3-3-3-3-5-5-5-5-5-5-5-5-5-5--|
A|---------------------------------------5-5-5-5-5-5-5-5-5-5--|
D|------------------------------------------------------------|

E|------------------------------------------------------------|
B|-8-8-8-8-8-8------------------------------------------------|
G|-x-x-x-x-x-x------------------------------------------------|
D|-5-5-5-5-5-5------------------------------------------------|
A|-5-5-5-5-5-5------------------------------------------------|
D|------------------------------------------------------------|

[Break]
[0:41-0:50]

[Chorus I]
[Guitar I]
[0:51-1:03]
E|------------------------------------------------------------|
B|----6--------------------------------8--8--8--8--8--8-------|
G|-8-----8--7--5--5--5--5--5--5--8--8--------------------8--8-|
D|------------------------------------------------------------|
A|------------------------------------------------------------|
D|------------------------------------------------------------|

E|------------------------------------------------------------|
B|------------------------------------------------------------|
G|-7--7--7--7--7--7--7--7--8--8--8--8--8-8-10-10-8-8-7-7------|
D|------------------------------------------------------------|
A|------------------------------------------------------------|
D|------------------------------------------------------------|

[Interlude between Chorus I and Verse II]
[1:04-1:16]
[Guitar I]
E|------------------------------------------------------------|
B|---------------------------------------------8-8-8-8-8-8-8--|
G|-------------------------------------8-8-8-8----------------|
D|-10-10-10-10-10-10-10-10-10-10-10-10------------------------|
A|------------------------------------------------------------|
D|------------------------------------------------------------|

E|------------------------------------------------------------|
B|-8-8-8-8-8--------------------------------------------------|
G|-----------8-8-7-7-------------------------------------8-8--|
D|-------------------10-10-10-10-10-10-10-10-10-10-10-10------|
A|------------------------------------------------------------|
D|------------------------------------------------------------|

E|------------------------------------------------------------|
B|-----8-8-8-8-8-8-8-8-8-8-8-8-8-8-8-8------------------------|
G|-8-8--------------------------------------------------------|
D|------------------------------------------------------------|
A|------------------------------------------------------------|
D|------------------------------------------------------------|

[Guitar II]
E|------------------------------------------------------------|
B|------------------------------------------------------------|
G|-5-5-5-5-5-5-5-5-5-5-5-5-5-5-5-5-8-8-8-8-8-8-8-8-8-8-8-8-8--|
D|-5-5-5-5-5-5-5-5-5-5-5-5-5-5-5-5-8-8-8-8-8-8-8-8-8-8-8-8-8--|
A|-3-3-3-3-3-3-3-3-3-3-3-3-3-3-3-3-6-6-6-6-6-6-6-6-6-6-6-6-6--|
D|------------------------------------------------------------|

E|------------------------------------------------------------|
B|------------------------------------------------------------|
G|-8-8-8-8----------------------------------------------------|
D|-8-8-8-8----------------------------------------------------|
A|-6-6-6-6----------------------------------------------------|
D|------------------------------------------------------------|

E|------------------------------------------------------------|
B|------------------------------------------------------------|
G|-5-5-5-5-5-5-5-5-5-5-5-5-5-5-5-5-8-8-8-8-8-8-8-8-8-8-8-8-8--|
D|-5-5-5-5-5-5-5-5-5-5-5-5-5-5-5-5-8-8-8-8-8-8-8-8-8-8-8-8-8--|
A|-3-3-3-3-3-3-3-3-3-3-3-3-3-3-3-3-6-6-6-6-6-6-6-6-6-6-6-6-6--|
D|------------------------------------------------------------|

E|------------------------------------------------------------|
B|------------------------------------------------------------|
G|-8-8-8-8----------------------------------------------------|
D|-8-8-8-8----------------------------------------------------|
A|-6-6-6-6----------------------------------------------------|
D|------------------------------------------------------------|

[Verse II]
[1:17-1:38]
[Guitar I]
E|------------------------------------------------------------|
B|------------------------------------------------------------|
G|------------------------------------------------------------|
D|------------------------------------------------------------|
A|-3-3-3-3-3-3-3-3-3-3-3-3-3-3-3-3-6-6-6-6-6-6-6-6-6-6-6-6-6--|
D|------------------------------------------------------------|

E|------------------------------------------------------------|
B|------------------------------------------------------------|
G|------------------------------------------------------------|
D|------------------------------------------------------------|
A|-6-6-6-3-3-3-3-3-3-3-3-3-3-3-3-3-3-3-3-6-6-6-6-6-6-6-6-6-6--|
D|------------------------------------------------------------|

E|------------------------------------------------------------|
B|------------------------------------------------------------|
G|------------------------------------------------------------|
D|-------------3-3-3-3-3-3-3-3-3-3-3-3-3-3-3-3-5-5-5-5-5-5-5--|
A|-6-6-6-6-6-6------------------------------------------------|
D|------------------------------------------------------------|

E|------------------------------------------------------------|
B|------------------------------------------------------------|
G|------------------------------------------------------------|
D|-5-5-5-5-5-5-5-5-5-3-3-3-3-3-3-3-3-3-3-3-3-3-3-3-3-5-5-5-5--|
A|-----------------------------------3-3-3-3-3-3-3-3----------|
D|------------------------------------------------------------|

E|------------------------------------------------------------|
B|---------8-8-8-8-8-8-8-8------------------------------------|
G|---------x-x-x-x-x-x-x-x------------------------------------|
D|-5-5-5-5-5-5-5-5-5-5-5-5------------------------------------|
A|---------5-5-5-5-5-5-5-5------------------------------------|
D|------------------------------------------------------------|

[Chorus 2]
(1:39-2:13)
[Guitar 1]
[x3]
E|------------------------------------------------------------|
B|---------------------------------------------8-8-8-8-8-8-8--|
G|-------------------------------------8-8-8-8----------------|
D|-10-10-10-10-10-10-10-10-10-10-10-10------------------------|
A|------------------------------------------------------------|
D|------------------------------------------------------------|

E|------------------------------------------------------------|
B|-8-8-8-8-8--------------------------------------------------|
G|-----------8-8-8-8-7-7-7-7-7-7-7-7-7-7-7-7-7-7-7-7----------|
D|---------------------------------------------------10-10-10-|
A|------------------------------------------------------------|
D|------------------------------------------------------------|

E|------------------------------------------------------------|
B|------------------------------------------------------------|
G|----------------8-8-10-10-8-8-7-7---------------------------|
D|-10-10-10-10-10---------------------------------------------|
A|------------------------------------------------------------|
D|------------------------------------------------------------|

[Guitar 2]
[x3]
E|------------------------------------------------------------|
B|------------------------------------------------------------|
G|-5-5-5-5-5-5-5-5-5-5-5-5-5-5-5-5-8-8-8-8-8-8-8-8-8-8-8-8-8--|
D|-5-5-5-5-5-5-5-5-5-5-5-5-5-5-5-5-8-8-8-8-8-8-8-8-8-8-8-8-8--|
A|-3-3-3-3-3-3-3-3-3-3-3-3-3-3-3-3-6-6-6-6-6-6-6-6-6-6-6-6-6--|
D|------------------------------------------------------------|

E|------------------------------------------------------------|
B|------------------------------------------------------------|
G|-8-8-8-8-7-7-7-7-7-7-7-7-7-7-7-7-7-7-7-7-5-5-5-5-5-5-5-5-5--|
D|-8-8-8-8-7-7-7-7-7-7-7-7-7-7-7-7-7-7-7-7-5-5-5-5-5-5-5-5-5--|
A|-6-6-6-6-5-5-5-5-5-5-5-5-5-5-5-5-5-5-5-5-3-3-3-3-3-3-3-3-3--|
D|------------------------------------------------------------|

E|------------------------------------------------------------|
B|------------------------------------------------------------|
G|-5-5-5-5-5-5-5----------------------------------------------|
D|-5-5-5-5-5-5-5----------------------------------------------|
A|-3-3-3-3-3-3-3----------------------------------------------|
D|------------------------------------------------------------|

[Interlude/Solo]
(2:14-2:35)
[Guitar 1]
E|-----------------------------6-6-6-6-----------------6-6-6--|
B|-------------------------------------8-8-8-8-8-8-8-8--------|
G|-------------7-7-7-7-8-8-8-8--------------------------------|
D|-10-10-10-10------------------------------------------------|
A|------------------------------------------------------------|
D|------------------------------------------------------------|

E|-6----------------------------------------------------------|
B|------------------------------------------------------------|
G|---8-8-8-8-7-7-7-7-8-8-8-8-10-10-10-10-7-7-7-7-8-8-8-8-8-8--|
D|------------------------------------------------------------|
A|------------------------------------------------------------|
D|------------------------------------------------------------|

E|------------------------------------------6~--------------6~|
B|------------------------------------------------8~----------|
G|-8-8-8-8-10-10-8-8-7-7--------7~----8~----------------------|
D|-----------------------10~----------------------------------|
A|------------------------------------------------------------|
D|------------------------------------------------------------|

E|------------------------------------------------------------|
B|------------------------------------------------------------|
G|-8~----7~----8~----10~----7~----8~--------------------------|
D|------------------------------------------------------------|
A|------------------------------------------------------------|
D|------------------------------------------------------------|

[Guitar II (2:14-2:26)]
E|------------------------------------------------------------|
B|------------------------------------------------------------|
G|-5-5-5-5-5-5-5-5-5-5-5-5-5-5-5-5-8-8-8-8-8-8-8-8-8-8-8-8-8--|
D|-5-5-5-5-5-5-5-5-5-5-5-5-5-5-5-5-8-8-8-8-8-8-8-8-8-8-8-8-8--|
A|-3-3-3-3-3-3-3-3-3-3-3-3-3-3-3-3-6-6-6-6-6-6-6-6-6-6-6-6-6--|
D|------------------------------------------------------------|

E|------------------------------------------------------------|
B|------------------------------------------------------------|
G|-8-8-8-8-7-7-7-7-7-7-7-7-7-7-7-7-7-7-7-7-5-5-5-5-5-5-5-5-5--|
D|-8-8-8-8-7-7-7-7-7-7-7-7-7-7-7-7-7-7-7-7-5-5-5-5-5-5-5-5-5--|
A|-6-6-6-6-5-5-5-5-5-5-5-5-5-5-5-5-5-5-5-5-3-3-3-3-3-3-3-3-3--|
D|------------------------------------------------------------|

E|------------------------------------------------------------|
B|------------------------------------------------------------|
G|-5-5-5-5-5-5-5----------------------------------------------|
D|-5-5-5-5-5-5-5----------------------------------------------|
A|-3-3-3-3-3-3-3----------------------------------------------|
D|------------------------------------------------------------|

[Chorus III]
(2:36-3:27)
[Guitar I]
[x1]
E|------------------------------------------------------------|
B|----6--------------------------------8--8--8--8--8--8-------|
G|-8-----8--7--5--5--5--5--5--5--8--8--------------------8--8-|
D|------------------------------------------------------------|
A|------------------------------------------------------------|
D|------------------------------------------------------------|

E|------------------------------------------------------------|
B|------------------------------------------------------------|
G|-7--7--7--7--7--7--7--7--8-8-8-8-8-8-8-8-8-8-10-10-8-8-7-7--|
D|------------------------------------------------------------|
A|------------------------------------------------------------|
D|------------------------------------------------------------|

[x2]
E|------------------------------------------------------------|
B|---------------------------------------------8-8-8-8-8-8-8--|
G|-------------------------------------8-8-8-8----------------|
D|-10-10-10-10-10-10-10-10-10-10-10-10------------------------|
A|------------------------------------------------------------|
D|------------------------------------------------------------|

E|------------------------------------------------------------|
B|-8-8-8-8-8--------------------------------------------------|
G|-----------8-8-8-8-7-7-7-7-7-7-7-7-7-7-7-7-7-7-7-7----------|
D|---------------------------------------------------10-10-10-|
A|------------------------------------------------------------|
D|------------------------------------------------------------|

E|------------------------------------------------------------|
B|------------------------------------------------------------|
G|----------------8-8-10-10-8-8-7-7---------------------------|
D|-10-10-10-10-10---------------------------------------------|
A|------------------------------------------------------------|
D|------------------------------------------------------------|

[x1]
E|------------------------------------------------------------|
B|-------------------------------8--8--8--8--8--8-------------|
G|-------------------------8--8--------------------8--8--7--7-|
D|-10--10--10--10--10--10-------------------------------------|
A|------------------------------------------------------------|
D|------------------------------------------------------------|

E|------------------------------------------------------------|
B|------------------------------------------------------------|
G|-7--7--7--7--7--7------------------8--10--8--7--------------|
D|-------------------10--10--10--10---------------10~----1~---|
A|-------------------------------------------------------1~---|
D|-------------------------------------------------------1~---|

[Guitar II (2:50-3:27)]
[x3]
E|------------------------------------------------------------|
B|------------------------------------------------------------|
G|-5-5-5-5-5-5-5-5-5-5-5-5-5-5-5-5-8-8-8-8-8-8-8-8-8-8-8-8-8--|
D|-5-5-5-5-5-5-5-5-5-5-5-5-5-5-5-5-8-8-8-8-8-8-8-8-8-8-8-8-8--|
A|-3-3-3-3-3-3-3-3-3-3-3-3-3-3-3-3-6-6-6-6-6-6-6-6-6-6-6-6-6--|
D|------------------------------------------------------------|

E|------------------------------------------------------------|
B|------------------------------------------------------------|
G|-8-8-8-8-7-7-7-7-7-7-7-7-7-7-7-7-7-7-7-7-5-5-5-5-5-5-5-5-5--|
D|-8-8-8-8-7-7-7-7-7-7-7-7-7-7-7-7-7-7-7-7-5-5-5-5-5-5-5-5-5--|
A|-6-6-6-6-5-5-5-5-5-5-5-5-5-5-5-5-5-5-5-5-3-3-3-3-3-3-3-3-3--|
E|------------------------------------------------------------|

E|------------------------------------------------------------|
B|------------------------------------------------------------|
G|-5-5-5-5-5-5-5~---------------------------------------------|
D|-5-5-5-5-5-5-5~----1~---------------------------------------|
A|-3-3-3-3-3-3-3~----1~---------------------------------------|
D|-------------------1~---------------------------------------|



************************************

| x  Dead note
| ~  Vibrato

************************************
Suggest correction
comments
print report bad tab
8 comments total. Showing first comments.
+1 reply
NMartinez23 10 Jun 13, 2014 10:40 PM

Awesome tab thanks

0 reply
Rarrlow 2,157 Jun 14, 2014 12:42 AM

My pleasure! Thank you for the feedback. :)

0 reply
Sensei3141 10 Jul 31, 2014 08:55 PM, edited at 08:58 pm

Uhm... since the song is in Cm, there is no D5... (no a)
and in Chorus i think it is A# Eb Bb Cm
for me sounds good:
while 2nd guitar plays power chords (Eb is where drop d is needed, always), guitar 1 does awesome stuff :)
for now, think 2nd Chorus is like
B|- |8 |- |-
G|5 (16x)|8 (16x)|7 (16x)|8 (16x)
D|6 |- |8 |10

2nd time end on
B|...|- --6----
G|...|8 (8x) 8---8-7
D|...|10 -------

and third time
B|- - |8 |- |- --6----
G|5 (12x) 8 (4x)|8 (12x) 8 (4x)|7 (16x)|8 (8x) 8---8-7
D|6 6 |- 6 |8 |10 -------

and after [Interlude/Solo] the 3 runs i do
2nd (from Chorus 2)
3rd
and last:
B|- - |8 |- |-
G|5 (12x) 8 (4x)|8 (12x) 8 (4x)|7 (16x)|8 (16x)
D|6 6 |- 6 |8 |10

and end on

1st guitar:
G|(8)~|-
D|(6)~|-
2nd guitar:
D| 6~ | - |-|-
A| 6~ |(1)~|~|~
D| 6~ |(1)~|~|~

maybe you can give the Keyboard Job to one guitar

guest
You may want to rate the tab now too:
select rating
Wanna post a correction for this tab? Suggest correction