Oops, an error
Loading. Please wait.
We have Chord Pro version of Final Masquerade.
It's the closest thing you can get to the original song and it has interactive parts. Check out the tab »
×

Final Masquerade Acoustic tab

1,055 views 33 this week
no commentswrite comment
1 2 3 4 5
2 more votes to show rating
add to favorites
×
Save as Personal and add changes to this tab that will be seen only by you. Learn more ›
×
You can save this tab as Personal to edit and correct it or add notes. All changes will be seen only by you. Learn more »
launch autoscroll
font size
0
reset
how to read this tab
guitar tuner
edit
Autoscroll
slow
fast
+/-
esc
set tempo
stop
Author
Difficulty
Hey guys, I wrote this Tab by ear after/while listening to the original Song "Final Masquerade
Acoustic" by Linkin Park. I hope there are little to no mistakes, yet if you find some let me know
and I will correct them.

For any question you can write me a message on Ultimateguitar. 

The song basically consist of quite a simple pattern and some basic chords which are the same
throughout the whole song. It may look harder than it actually is, so don't fear trying to just play it!
Once you've learned that pattern, playing this song won't be a huge problem for you. Good luck!
I will soon upload a video of me playing this song.

A ) Intro

    Am                                                C
E|----------------------------------------------------------------------------------------------------|
B|------1--1---------1--1----------1--1--------1--1---------1--1---------1--1--------1--1-------1--1--|
G|------2------------2-------------2-----------0------------0------------0-----------0-----------0----|
D|---2--2---------2--2----------2--2--------0--0---------2--2--------2---2--------2--2--------0--0----|
A|0-----0------0-----0-------0-----0------2----2------3-----3------3-----3-----3-----3-----2-----0----|
E|----------------------------------------------------------------------------------------------------|


B ) Verse (Am, C, Am, C)

                                                                              Tearing         me
    Am                                                C
E|----------------------------------------------------------------------------------------------------|
B|------1--1---------1--1----------1--1--------1--1---------1--1---------1--1--------1--1--------1--1-|
G|------2------------2-------------2-----------0------------0------------0-----------0-----------0----|
D|---2--2---------2--2----------2--2--------0--0---------2--2--------2---2--------2--2--------0--0----|
A|0-----0------0-----0-------0-----0------2----2------3-----3------3-----3-----3-----3-----2-----0----|
E|----------------------------------------------------------------------------------------------------|


  apart      with        the words you wouldn't       say                       Suddenly         to-
  Am                                                  C
E|----------------------------------------------------------------------------------------------------|
B|------1--1---------1--1----------1--1--------1--1---------1--1---------1--1--------1--1-------1--1--|
G|------2------------2-------------2-----------0------------0------------0-----------0-----------0----|
D|---2--2---------2--2----------2--2--------0--0---------2--2--------2---2--------2--2--------0--0----|
A|0-----0------0-----0-------0-----0------2----2------3-----3------3-----3-----3-----3-----2-----0----|
E|----------------------------------------------------------------------------------------------------|


  morrow's                 Moment       washed        away                     Cause  I  don't  have a
  Am                                                  C
E|----------------------------------------------------------------------------------------------------|
B|------1--1---------1--1----------1--1--------1--1---------1--1---------1--1--------1--1-------1--1--|
G|------2------------2-------------2-----------0------------0------------0-----------0-----------0----|
D|---2--2---------2--2----------2--2--------0--0---------2--2--------2---2--------2--2--------0--0----|
A|0-----0------0-----0-------0-----0------2----2------3-----3------3-----3-----3-----3-----2-----0----|
E|----------------------------------------------------------------------------------------------------|


  Rea    -    son,  and you don't have the         time                        If   we both keep on
  F#                                               Am
E|----------------------------------------------------------------------------------------------------|
B|------2--2--------2--2---------2--2-------1--1----------1--1----------1--1---------1--1-------1--1--|
G|------2-----------2------------2----------0-------------0-------------0------------0----------0-----|
D|---3--3--------3--3---------3--3-------0--0----------2--2---------2---2---------2--2-------0--0-----|
A|1-----1-----1-----1------1-----1-----2----2-------3-----3-------3-----3------3-----3----2-----0-----|
E|----------------------------------------------------------------------------------------------------|

                                                                             C ) Chorus
  wai    -    ting     for   something we won't    find                      The Light on the    Ho-
   G                                               E
E|----------------------------------------------------------------------------------------------------|
B|------3--3--------3--3---------3--3--------3--3---------0--0---------0--0---------0--0--------0--0--|
G|------0-----------0------------0-----------0------------1------------1------------1-----------1-----|
D|------0-----------0------------0-----------0------------2------------0------------2-----------2-----|
A|---2--2--------2--2---------2--2--------2--2---------2--2---------2--2---------2--2--------2--2-----|
E|3-----3----3------3------3-----3-----3-----3------0-----0------0-----0------0-----0-----0-----0-----|

C ) Chorus


         rizon          was     brighter      yester       -             day   Shadows     floating
         F#                                                              C
E|--------------------------------------------------------------------------------------------------|
B|-------1---------------------------------------------------------------1--------------------------|
G|-------2---------------------------------------------------------------0--------------------------|
D|-------3---------------------------------------------------------------2--------------------------|
A|-------3---------------------------------------------------------------3--------------------------|
E|-------1------------------------------------------------------------------------------------------|


         over,             Scars   begin   to      fade.                       Said   it   was for -
         G                                         Am                          E
E|-------0-----------------------------------------0---------------------------0--------------------|
B|-------3-----------------------------------------1---------------------------0--------------------|
G|-------0-----------------------------------------2---------------------------2--------------------|
D|-------0-----------------------------------------2---------------------------2--------------------|
A|-------2-----------------------------------------0---------------------------1--------------------|
E|-------3------------------------------------------------------------------------------------------|


         ever,  but             then             it     slipped       away.     Standing  at     the
         F#                                                           C
E|--------------------------------------------------------------------------------------------------|
B|-------1------------------------------------------------------------1-----------------------------|
G|-------2------------------------------------------------------------0-----------------------------|
D|-------3------------------------------------------------------------2-----------------------------|
A|-------3------------------------------------------------------------3-----------------------------|
E|-------1------------------------------------------------------------------------------------------|


         end    of the final   MasquE   -  rade.                          The    Final  Masque -
         G                                    Am                          E
E|-------0------------------------------------------0-------------0-------------0-------------0-----|
B|-------3------------------------------------------1--1----------1--1----------0--0----------0--0--|
G|-------0------------------------------------------2-------------2-------------1-------------1-----|
D|-------0---------------------------------------2--2----------2--2-------------2-------------2-----|
A|-------2------------------------------------0-----0-------0-----0----------2--2----------2--2-----|
E|-------3----------------------------------------------------------------0-----0-------0-----0-----|


D ) 2. Verse

  rade.
  Am                                                C
E|----------------------------------------------------------------------------------------------------|
B|------1--1--------1--1---------1--1-------1--1----------1--1---------1--1----------1--1-------1--1--|
G|------2-----------2------------2----------0-------------0------------0-------------0----------0-----|
D|---2--2--------2--2---------2--2-------0--0----------2--2--------2---2----------2--2-------0--0-----|
A|0-----0-----0-----0------0-----0-----2----2-------3-----3------3-----3-------3-----3----2-----0-----|
E|----------------------------------------------------------------------------------------------------|


                                                                               All       I     ever
  Am                                                C
E|----------------------------------------------------------------------------------------------------|
B|------1--1--------1--1---------1--1-------1--1----------1--1---------1--1----------1--1-------1--1--|
G|------2-----------2------------2----------0-------------0------------0-------------0----------0-----|
D|---2--2--------2--2---------2--2-------0--0----------2--2--------2---2----------2--2-------0--0-----|
A|0-----0-----0-----0------0-----0-----2----2-------3-----3------3-----3-------3-----3----2-----0-----|
E|----------------------------------------------------------------------------------------------------|


  wan      ted           The secrets that you       keep                       All   you  ever wan -
  Am                                                C
E|----------------------------------------------------------------------------------------------------|
B|------1--1--------1--1---------1--1-------1--1----------1--1---------1--1----------1--1-------1--1--|
G|------2-----------2------------2----------0-------------0------------0-------------0----------0-----|
D|---2--2--------2--2---------2--2-------0--0----------2--2--------2---2----------2--2-------0--0-----|
A|0-----0-----0-----0------0-----0-----2----2-------3-----3------3-----3-------3-----3----2-----0-----|
E|----------------------------------------------------------------------------------------------------|


  wan      -  ted          The truth I couldn't    speak                       Cause   I can't  see
  Am                                               C
E|----------------------------------------------------------------------------------------------------|
B|------1--1--------1--1---------1--1-------1--1----------1--1---------1--1----------1--1-------1--1--|
G|------2-----------2------------2----------0-------------0------------0-------------0----------0-----|
D|---2--2--------2--2---------2--2-------0--0----------2--2--------2---2----------2--2-------0--0-----|
A|0-----0-----0-----0------0-----0-----2----2-------3-----3------3-----3-------3-----3----2-----0-----|
E|----------------------------------------------------------------------------------------------------|


  forgiveness             And  you  can't see the    crime                    If   we both  keep  on
  F#                                                 C
E|----------------------------------------------------------------------------------------------------|
B|------2--2--------2--2---------2--2--------1--1----------1--1--------1--1---------1--1--------1--1--|
G|------2-----------2------------2-----------0-------------0-----------0------------0-----------0-----|
D|---3--3--------3--3---------3--3--------0--0----------2--2-------2---2---------2--2--------0--0-----|
A|1-----1-----1-----1------1-----1------2----2-------3-----3-----3-----3------3-----3-----2-----0-----|
E|----------------------------------------------------------------------------------------------------|

                                                                             C ) Chorus
  waiting                 for what we left          behind                   The Light on the  Ho  -
  G                                                 Am                       E
E|----------------------------------------------------------------------------------------------------|
B|------3--3--------3--3--------3--3--------3--3----------0--0--------0--0---------0--0---------0--0--|
G|------0-----------0-----------0-----------0-------------1-----------1------------1------------1-----|
D|------0-----------0-----------0-----------0----------2--2--------2--2------------2------------2-----|
A|---2--2--------2--2--------2--2--------2--2-------2-----2------2----2---------2--2---------2--2-----|
E|3-----3----3------3-----3-----3-----3-----3--------------------------------0-----0------0-----0-----|

   C ) Chorus

  rizon                    was  brighter yester   -  day                      Shadows       floating
  F#                                                 C
E|----------------------------------------------------------------------------------------------------|
B|------2--2--------2--2---------2--2--------1--1----------1--1--------1--1---------1--1--------1--1--|
G|------2-----------2------------2-----------0-------------0-----------0------------0-----------0-----|
D|---3--3--------3--3---------3--3--------0--0----------2--2-------2---2---------2--2--------0--0-----|
A|1-----1-----1-----1------1-----1------2----2-------3-----3-----3-----3------3-----3-----2-----0-----|
E|----------------------------------------------------------------------------------------------------|


  over,                   Scars   begin     to      fade.                    Said     it   was for -
  G                                                 Am                       E
E|----------------------------------------------------------------------------------------------------|
B|------3--3--------3--3--------3--3--------3--3----------0--0--------0--0---------0--0---------0--0--|
G|------0-----------0-----------0-----------0-------------1-----------1------------1------------1-----|
D|------0-----------0-----------0-----------0----------2--2--------2--2------------2------------2-----|
A|---2--2--------2--2--------2--2--------2--2-------2-----2------2----2---------2--2---------2--2-----|
E|3-----3----3------3-----3-----3-----3-----3--------------------------------0-----0------0-----0-----|


  ever,                    but   then it slipped a-  way.                     Standing at   the
  F#                                                 C
E|----------------------------------------------------------------------------------------------------|
B|------2--2--------2--2---------2--2--------1--1----------1--1--------1--1---------1--1--------1--1--|
G|------2-----------2------------2-----------0-------------0-----------0------------0-----------0-----|
D|---3--3--------3--3---------3--3--------0--0----------2--2-------2---2---------2--2--------0--0-----|
A|1-----1-----1-----1------1-----1------2----2-------3-----3-----3-----3------3-----3-----2-----0-----|
E|----------------------------------------------------------------------------------------------------|


  end  of                 the   final   Masque-     rade.                    The   Final    Masque -
  G                                                 Am                       E
E|----------------------------------------------------------------------------------------------------|
B|------3--3--------3--3--------3--3--------3--3----------0--0--------0--0---------0--0---------0--0--|
G|------0-----------0-----------0-----------0-------------1-----------1------------1------------1-----|
D|------0-----------0-----------0-----------0----------2--2--------2--2------------2-----------2------|
A|---2--2--------2--2--------2--2--------2--2-------2-----2------2----2---------2--2---------2--2-----|
E|3-----3----3------3-----3-----3-----3-----3--------------------------------0-----0------0-----0-----|


  rade                     The  Final  Masque   -    rade                     Standing    at    the
  F#                                                 C
E|----------------------------------------------------------------------------------------------------|
B|------2--2--------2--2---------2--2--------1--1----------1--1--------1--1---------1--1--------1--1--|
G|------2-----------2------------2-----------0-------------0-----------0------------0-----------0-----|
D|---3--3--------3--3---------3--3--------0--0----------2--2-------2---2---------2--2--------0--0-----|
A|1-----1-----1-----1------1-----1------2----2-------3-----3-----3-----3------3-----3-----2-----0-----|
E|----------------------------------------------------------------------------------------------------|


  end    of              The    Final    Masque   - rade.
  G                                                 Am                       E
E|----------------------------------------------------------------------------------------------------|
B|------3--3--------3--3--------3--3--------3--3----------0--0--------0--0---------0--0---------0--0--|
G|------0-----------0-----------0-----------0-------------1-----------1------------1------------1-----|
D|------0-----------0-----------0-----------0-------------2-----------0------------2------------2-----|
A|---2--2--------2--2--------2--2--------2--2----------2--2--------2--2---------2--2---------2--2-----|
E|3-----3----3------3-----3-----3-----3-----3-------0-----0-----0-----0------0-----0------0-----0-----|


  F#                                                 C
E|----------------------------------------------------------------------------------------------------|
B|------2--2--------2--2---------2--2--------1--1----------1--1--------1--1---------1--1--------1--1--|
G|------2-----------2------------2-----------0-------------0-----------0------------0-----------0-----|
D|---3--3--------3--3---------3--3--------0--0----------2--2-------2---2---------2--2--------0--0-----|
A|1-----1-----1-----1------1-----1------2----2-------3-----3-----3-----3------3-----3-----2-----0-----|
E|----------------------------------------------------------------------------------------------------|


  G                                                 Am                       E
E|----------------------------------------------------------------------------------------------------|
B|------3--3--------3--3--------3--3--------3--3----------0--0--------0--0---------0--0---------0--0--|
G|------0-----------0-----------0-----------0-------------1-----------1------------1------------1-----|
D|------0-----------0-----------0-----------0----------2--2--------2--2------------2-----------2------|
A|---2--2--------2--2--------2--2--------2--2-------2-----2------2----2---------2--2---------2--2-----|
E|3-----3----3------3-----3-----3-----3-----3--------------------------------0-----0------0-----0-----|


         F#                                                           C
E|--------------------------------------------------------------------0-----------------------------|
B|-------1------------------------------------------------------------1-----------------------------|
G|-------2------------------------------------------------------------2-----------------------------|
D|-------3------------------------------------------------------------0-----------------------------|
A|-------3------------------------------------------------------------3-----------------------------|
E|-------1------------------------------------------------------------0-----------------------------|

                                                                              The Light on the Ho  -
         G                                              Am                    E
E|-------0----------------------------------------------0---------------------0---------------------|
B|-------3----------------------------------------------1---------------------0---------------------|
G|-------0----------------------------------------------2---------------------2---------------------|
D|-------0----------------------------------------------2---------------------2---------------------|
A|-------2----------------------------------------------0---------------------1---------------------|
E|-------3------------------------------------------------------------------------------------------|


         rizon          was     brighter      yester       -             day.       Shadows floating
         F#                                                              C
E|--------------------------------------------------------------------------------------------------|
B|-------1---------------------------------------------------------------1--------------------------|
G|-------2---------------------------------------------------------------0--------------------------|
D|-------3---------------------------------------------------------------2--------------------------|
A|-------3---------------------------------------------------------------3--------------------------|
E|-------1------------------------------------------------------------------------------------------|


         over.    Scars     begin       to    fade.                       Said     it  was for-
         G                                    Am                          E
E|-------0------------------------------------------0-------------0-------------0-------------0-----|
B|-------3------------------------------------------1--1----------1--1----------0--0----------0--0--|
G|-------0------------------------------------------2-------------2-------------1-------------1-----|
D|-------0---------------------------------------2--2----------2--2-------------2-------------2-----|
A|-------2------------------------------------0-----0-------0-----0----------2--2----------2--2-----|
E|-------3----------------------------------------------------------------0-----0-------0-----0-----|


  ever,                    but   then it slipped a-  way.                     Standing at   the
  F#                                                 C
E|----------------------------------------------------------------------------------------------------|
B|------2--2--------2--2---------2--2--------1--1----------1--1--------1--1---------1--1--------1--1--|
G|------2-----------2------------2-----------0-------------0-----------0------------0-----------0-----|
D|---3--3--------3--3---------3--3--------0--0----------2--2-------2---2---------2--2--------0--0-----|
A|1-----1-----1-----1------1-----1------2----2-------3-----3-----3-----3------3-----3-----2-----0-----|
E|----------------------------------------------------------------------------------------------------|

  end    of              The    Final    Masque   - rade.                    Hooooo      hooooooooo
  G                                                 Am                       E
E|----------------------------------------------------------------------------------------------------|
B|------3--3--------3--3--------3--3--------3--3----------0--0--------0--0---------0--0---------0--0--|
G|------0-----------0-----------0-----------0-------------1-----------1------------1------------1-----|
D|------0-----------0-----------0-----------0-------------2-----------0------------2------------2-----|
A|---2--2--------2--2--------2--2--------2--2----------2--2--------2--2---------2--2---------2--2-----|
E|3-----3----3------3-----3-----3-----3-----3-------0-----0-----0-----0------0-----0------0-----0-----|


  hhhooooooo              ohhh hooooooo              hooooooooooo             Standing    at    the
  F#                                                 C
E|----------------------------------------------------------------------------------------------------|
B|------2--2--------2--2---------2--2--------1--1----------1--1--------1--1---------1--1--------1--1--|
G|------2-----------2------------2-----------0-------------0-----------0------------0-----------0-----|
D|---3--3--------3--3---------3--3--------0--0----------2--2-------2---2---------2--2--------0--0-----|
A|1-----1-----1-----1------1-----1------2----2-------3-----3-----3-----3------3-----3-----2-----0-----|
E|----------------------------------------------------------------------------------------------------|


  end    of              The    Final    Masque   - rade.                    Hooooo      hooooooooo
  G                                                 Am                       E
E|----------------------------------------------------------------------------------------------------|
B|------3--3--------3--3--------3--3--------3--3----------0--0--------0--0---------0--0---------0--0--|
G|------0-----------0-----------0-----------0-------------1-----------1------------1------------1-----|
D|------0-----------0-----------0-----------0-------------2-----------0------------2------------2-----|
A|---2--2--------2--2--------2--2--------2--2----------2--2--------2--2---------2--2---------2--2-----|
E|3-----3----3------3-----3-----3-----3-----3-------0-----0-----0-----0------0-----0------0-----0-----|


  hhhooooooo              ohhh hooooooo              hooooooooooo            Standing    at    the
  F#                                                 C
E|----------------------------------------------------------------------------------------------------|
B|------2--2--------2--2---------2--2--------1--1----------1--1--------1--1---------1--1--------1--1--|
G|------2-----------2------------2-----------0-------------0-----------0------------0-----------0-----|
D|---3--3--------3--3---------3--3--------0--0----------2--2-------2---2---------2--2--------0--0-----|
A|1-----1-----1-----1------1-----1------2----2-------3-----3-----3-----3------3-----3-----2-----0-----|
E|----------------------------------------------------------------------------------------------------|


  end    of              The    Final    Masque   - rade.                    Hooooo      hooooooooo
  G                                                 Am                       E
E|----------------------------------------------------------------------------------------------------|
B|------3--3--------3--3--------3--3--------3--3----------0--0--------0--0---------0--0---------0--0--|
G|------0-----------0-----------0-----------0-------------1-----------1------------1------------1-----|
D|------0-----------0-----------0-----------0-------------2-----------0------------2------------2-----|
A|---2--2--------2--2--------2--2--------2--2----------2--2--------2--2---------2--2---------2--2-----|
E|3-----3----3------3-----3-----3-----3-----3-------0-----0-----0-----0------0-----0------0-----0-----|

         F#                                                              C
E|--------------------------------------------------------------------------------------------------|
B|-------1---------------------------------------------------------------1--------------------------|
G|-------2---------------------------------------------------------------0--------------------------|
D|-------3---------------------------------------------------------------2--------------------------|
A|-------3---------------------------------------------------------------3--------------------------|
E|-------1------------------------------------------------------------------------------------------|


         G
E|-------3-----------------------------------|
B|-------3-----------------------------------|
G|-------0-----------------------------------|
D|-------0-----------------------------------|
A|-------2-----------------------------------|
E|-------3-----------------------------------|

            
            
Suggest correction
Creating personal tab
Creating personal tab
You can edit any tab online and save it as your Personal.

You can edit, replace or remove any tab part or add personal notes – all changes will be seen only by you.

Personal tabs can be accessed anytime from any device, even offline.
Learn more »
Give kudos to tab author, rate the tab!
1 2 3 4 5
comments
print report bad tab
guest
You may want to rate the tab now too:
select rating
Wanna post a correction for this tab? Suggest correction